Song name
# A B C D E F G H I J K L M N O P Q R S T U V W X Y Z

American Hi Fi - The Gold Rush tab

Artist: American Hi-Fi
Album: American Hi-FI
Song: The Gold Rush
Tabbed By: Chris Simmons, JEEtoP@hotmail.com


Always Wanted to Play This One And No Other Tab Is Even Close So Here Goes...
Great Fun To Rock Out To.

Drop-D Tuning
Heavy Distortion!

Intro:
                       
e|--------------------------------------|
B|--------------------------------------|    Play Quick!
G|-999--------------------------7-------|:
D|-999-8--777-10--121212-8--777-7-------|:
A|-777-8--777-10--121212-8--777-5-------|
D|-----8--777-10--121212-8--777---------|

---

Verse:

Play Intro but less distortion, or just play root note...

---

Pre-Chorus:
                       
e|---------------------------------------|
B|---------------------------------------|
G|-55555555------------------------------|
D|-55555555-055555555-033333333-33333333-|
A|-33333333-055555555-033333333-33333333-|
D|----------055555555-033333333-33333333-|

e|-------------------------------------------|
B|----------------------------XXX------------|
G|-055555555------------------XXX------------|
D|-055555555-055555555-0333333XXX6-66666666--|
A|-033333333-055555555-0333333XXX6-66666666--|
D|-----------055555555-0333333---6-66666666--|

---

Chorus:

Same As Intro...
e|--------------------------------------|
B|--------------------------------------|    Play Quick!
G|-999--------------------------7-------|:
D|-999-8--777-10--121212-8--777-7-------|:
A|-777-8--777-10--121212-8--777-5-------|
D|-----8--777-10--121212-8--777---------|

---

Chorus-to-Verse Fill:

Like Intro only...
e|--------------------------------------|
B|--------------------------------------|    Play Quick!
G|-999-11--121212-6--777--------7-------|:
D|-999-11--121212-6--777-8--777-7-------|:
A|-777-9---101010-4--555-8--777-5-------|
D|-----------------------8--777---------|

---

Verse:

Back To Intro with less distortion...

---

Pre-Chorus:

Same As Above...

---

Chorus:

Same As Above...

---

Bridge:

This Is The Pattern Just Mess Around, Mute A Few Notes etc...
Same As Intro...
e|-------------------|
B|-------------------|
G|--5-4--------------|
D|--5-4-7-5----------|
A|--3-2-7-5----------|
D|------7-5----------|

I think It Sounds Alrite Like...
e|-------------------|
B|-------------------|
G|--5-4--------------|
D|--x-x-7-5----------|
A|--3-2-x-x----------|
D|------x-x----------|

---

Solo:

Chorus Played Underneath, Havn't Tabbed Solo Just Mess Around With Some Notes That Sound Right.
Can't remember which ones i play.

Oh and end the last chorus repeat in the solo with...
...---------------------|
...---------------------|
...-777--------77-------|
...-777-8--777-77-------|
...-555-8--777-55-------|
...-----8--777----------| Then Pause, Then Back Into Chorus...

---

Chorus:
Same As Above, Repeat Twice...

---

Outro:

Same As Chorus-to-Verse Fill Above...

End With...
...-----------------------|
...-----------------------|
...-777---------077-------|
...-777-8--777--077-------|
...-555-8--777--055-------|
...-----8--777------------| 
Tap to rate this tab
# A B C D E F G H I J K L M N O P Q R S T U V W X Y Z