Song name
# A B C D E F G H I J K L M N O P Q R S T U V W X Y Z

American Minor - Buffalo Creek tab

-------------------------------------------------------------------------------
			     Buffalo Creek - American Minor
-------------------------------------------------------------------------------
Tabbed by: Kevin
Email: almostasn112@aol.com

Tuning:EADGBE

Main Riff: play 2x

e|------------------------------------------------------------------------------|
B|------------------------------------------------------------------------------|
G|--5--7---5--7-----------------------------------------------------------------|
D|--5--7---5--7---------3------3--5----3--5-----------3-3-----------------------|
A|--3--5---3--5----------------3--5----3--5----------------3h5------------------|
E|-----------------3-5---------1--3----1--3-----3h5-----------------------------|

 Verse: play 4x

e|------------------------------------------------------------------------------|
B|------------------------------------------------------------------------------|
G|------------------------------------------------------------------------------|
D|----------3--------------------------33---------------------------------------|
A|-----345--------53--------------------------53----3h5-------------------------|
E|---3----------------543--1-------3h5------------5-----------------------------|


Bar Chord Part:

C      G      C     G


Back to Main Riff: 2 x

e|------------------------------------------------------------------------------|
B|------------------------------------------------------------------------------|
G|--5--7---5--7-----------------------------------------------------------------|
D|--5--7---5--7---------3------3--5----3--5-----------3-3-----------------------|
A|--3--5---3--5----------------3--5----3--5----------------3h5------------------|
E|-----------------3-5---------1--3----1--3-----3h5-----------------------------|

 Verse: play 4x

e|------------------------------------------------------------------------------|
B|------------------------------------------------------------------------------|
G|------------------------------------------------------------------------------|
D|----------3--------------------------33---------------------------------------|
A|-----345--------53--------------------------53----3h5-------------------------|
E|---3----------------543--1-------3h5------------5-----------------------------|


 Bar Chords:

C      G       C      G


Main Riff: 2x

e|------------------------------------------------------------------------------|
B|------------------------------------------------------------------------------|
G|--5--7---5--7-----------------------------------------------------------------|
D|--5--7---5--7---------3------3--5----3--5-----------3-3-----------------------|
A|--3--5---3--5----------------3--5----3--5----------------3h5------------------|
E|-----------------3-5---------1--3----1--3-----3h5-----------------------------|


2nd Bar Chord Part: 4x

e|--5----------3--3---------3------------------------------------------------|
B|--6----------5--5---------3------------------------------------------------|
G|--7----------5--5---------4------------------------------------------------|
D|--7----------5--5---------5------------------------------------------------|
A|--5----------3--3---------5------------------------------------------------|
E|--------------------------3------------------------------------------------|


Outro: 2x

e|---------------------------------------------------------------------------|
B|---------------------------------------------------------------------------|
G|---------7-----------------------------------------------------------------|
D|---3--5--7-----------3------------------3----------------------------------|
A|---3--5--5----5-3-5-----------------345-----55-35--------------------------|
E|---1--3--------------------1-3--3\5-----------------1----------------------|

Main Riff: 6x

e|------------------------------------------------------------------------------|
B|------------------------------------------------------------------------------|
G|--5--7---5--7-----------------------------------------------------------------|
D|--5--7---5--7---------3------3--5----3--5-----------3-3-----------------------|
A|--3--5---3--5----------------3--5----3--5----------------3h5------------------|
E|-----------------3-5---------1--3----1--3-----3h5-----------------------------|

End

e|---------------------------------------------------------------------------|
B|---------------------------------------------------------------------------|
G|---------------------------------------------------------------------------|
D|--5-----7------------------------------------------------------------------|
A|--3-----5------------------------------------------------------------------|
E|---------------------------------------------------------------------------|


| /  slide up
| \  slide down
| h  hammer-on
| p  pull-off
| ~  vibrato
| +  harmonic
| x  Mute note
===============================================================================
Tap to rate this tab
 
# A B C D E F G H I J K L M N O P Q R S T U V W X Y Z