Song name
# A B C D E F G H I J K L M N O P Q R S T U V W X Y Z

American Nightmare - Shoplifting In Ghost Town tab

-------------------------------------------------------------------------------
		SHOPLIFTING IN GHOST TOWN - American Nightmare
-------------------------------------------------------------------------------

By: Mike Crucial www.myspace.com/mikecrucial

   Pre-Verse
E|---------------------------------------------------------------------------|
B|------------------------------5-5-5--7-7-7--8-8-8--10-12-12-12-------------|
G|--9--4------------------9--4-----------------------------------------------|
D|--9-----2-2-2-2-2-2-2---9-----2-2-2--4-4-4--5-5-5--7-/9--9--9--------------|
A|--7--2--2-2-2-2-2-2-2---7--2-----------------------------------------------|
E|--------0-0-0-0-0-0-0------------------------------------------------------|

					        Verse
E|--------------------------------------------|------------------------------|
B|--------------------------------------------|------------------------------|
G|--9--4---------4~---------4~--9--4--5-7--9--|--9-9-9-9--5-5-5-5--4-4-4-4---|
D|--9-----2-2-2------2-2-2------9-----5-7--9--|--9-9-9-9--5-5-5-5------------|
A|--7--2--2-2-2------2-2-2------7--2--3/5--7--|--7-7-7-7--3-3-3-3--2-2-2-2---|
E|--------0-0-0------0-0-0--------------------|------------------------------|

E|---------------------------------------------------------------------------|
B|---------------------------------------------------------------------------|
G|--4-4--5-5-5--7-7-7---9-9-9-9--5-5-5-5--4-4-4-4-4-4--5-4--------9-9-9-9----|
D|-------5-5-5--7-7-7---9-9-9-9--5-5-5-5---------------5-4--5-4---9-9-9-9----|
A|--2-2--3-3-3--5-5-5---7-7-7-7--3-3-3-3--2-2-2-2-2-2--3-2--5-4---7-7-7-7----|
E|----------------------------------------------------------3-2--------------|

E|---------------------------------------------------------------------------|
B|-------------------------------6-6-----------------------------------------|
G|--5-5-5-5--4-4-4-4-4-4--5-5-5--------9-9-9-9--5-5-5-5--4-4-4-4-4-4--5-4----|
D|--5-5-5-5----------------------3-3---9-9-9-9--5-5-5-5---------------5-4----|
A|--3-3-3-3--2-2-2-2-2-2--3-3-3--------7-7-7-7--3-3-3-3--2-2-2-2-2-2--3-2----|
E|---------------------------------------------------------------------------|

	   Chorus	
E|-------|-------------------------------------------------------------------|
B|-------|-------------------------------------------------------------------|
G|-------|------------5----------------------------5-7--9-9-9-9-9-7-9-9-9-9--|
D|--5-4--|--8-8-8-8-8-5--2-2-2-2-2-2-2--8-8-8-8-8--5-7-----------------------|
A|--5-4--|--8-8-8-8-8-3--2-2-2-2-2-2-2--8-8-8-8-8--3-5--7-7-7-7-7-5/7-7-7-7--|
E|--3-2--|--6-6-6-6-6----0-0-0-0-0-0-0--6-6-6-6-6----------------------------|

							  Outro
E|---------------------------------------------|        |--------------------|
B|---------------------------------------------|        |--------------------|
G|------------5-----------------------------5--| Repeat |--------------------|
D|--8-8-8-8-8-5--2-2-2-2-2-2-2---8-8-8-8-8--5--| Verse/ |--2--2-2--3--5------|
A|--8-8-8-8-8-3--2-2-2-2-2-2-2---8-8-8-8-8--3--| Chorus |--2--2-2--3--5------|
E|--6-6-6-6-6----0-0-0-0-0-0-0---6-6-6-6-6-----|        |--0--0-0--1--3------|

E|--------------------------|------------------------------------------------|
B|--------------------------|------------------------------------------------|
G|--------------------------|-----------------9--7-4-4--5-7---9-9-9-9--------|
D|--2--2-2--3--3-3-3-3-3-5--|--2-2-2-2-2-2-2--9---------5-7------------2-2---|
A|--2--2-2--3--3-3-3-3-3-5--|--2-2-2-2-2-2-2--7--5-2-2--3-5---7-7-7-7--2-2---|
E|--0--0-0--1--1-1-1-1-1-3--|--0-0-0-0-0-0-0---------------------------0-0---|

E|---------------------------------------------------------------------------|
B|--------------------------------------------8-7-8--10-12-------------------|
G|--9-9-9-9-------9--7-4--7---9-9-9-9-----------------------9--7-4--7--------|
D|-----------2-2--9-------7------------2-2-2--5-4-5--7--9---9-------7--------|
A|--7-7-7-7--2-2--7--5-2--5---7-7-7-7--2-2-2----------------7--5-2--5--------|
E|-----------0-0-----------------------0-0-0---------------------------------|

E|---------------------------------------------------------------------------||
B|------------------8-7-8--10-12--------------------12-----------------------||
G|--9-9-9-9-----------------------9--7-4-------------------------------------||
D|-----------2-2-2--5-4-5--7--9---9--------2-2-2-2---------------------------||
A|--7-7-7-7--2-2-2----------------7--5-2---2-2-2-2---------------------------||
E|-----------0-0-0-------------------------0-0-0-0---------------------------||

==============================================================================
Tap to rate this tab
 
# A B C D E F G H I J K L M N O P Q R S T U V W X Y Z