Song name
# A B C D E F G H I J K L M N O P Q R S T U V W X Y Z

American Nightmare - I Saved Latin tab

-------------------------------------------------------------------------------
		      I SAVED LATIN - American Nightmare
-------------------------------------------------------------------------------

By: Mike Crucial www.myspace.com/mikecrucial

   Verse/Chorus 

E|----------------|----------------------------------------------------------|
B|----------------|----------------------------------------------------------|
G|--4--4--4--4-4--|--------------------9-9-----------------------------------|
D|--4--4--4--4-4--|--5-5-5-5-5--2-2-2-------5-5-5-5-5--2-2-2-2-2--5-5-5-5-5--|
A|--2--2--2--2-2--|--5-5-5-5-5--2-2-2--7-7--5-5-5-5-5--2-2-2-2-2--5-5-5-5-5--|
E|----------------|--3-3-3-3-3--0-0-0-------3-3-3-3-3--0-0-0-0-0--3-3-3-3-3--|

E|---------------------------------------------------------------------------||
B|---------------------------------------------------------------------------||
G|---------9-9----------------2-2--4--4--------------------------------------||
D|--2-2-2-------5-5-5-5-5--2--2-2--4--4--------------------------------------||
A|--2-2-2--7-7--5-5-5-5-5--2--0-0--2--2--------------------------------------||
E|--0-0-0-------3-3-3-3-3--0-------------------------------------------------||

===============================================================================
Tap to rate this tab
# A B C D E F G H I J K L M N O P Q R S T U V W X Y Z