Guitaretab - guitar tabs
Song name
# A B C D E F G H I J K L M N O P Q R S T U V W X Y Z

American Nightmare - Postmark My Compass tab

-------------------------------------------------------------------------------
		 POSTMARK MY COMPASS - American Nightmare
-------------------------------------------------------------------------------

By:  Mike Crucial www.myspace.com/mikecrucial

   Intro		 Pre-Verse
E|---------------------|-----------------------------------------------------|
B|---------------------|-----------------------------------------------------|
G|--9-7-------------2--|--------------7-7-7-7--------------------------------|
D|--9-7--8-7--3-3-3-2--|--2-2-2--5-8--7-7-7-7--6-6-6-6--5-5-5-5--2-2-2--5-8--|
A|--7-5--8-7--3-3-3-0--|--2-2-2--5-8--5-5-5-5--6-6-6-6--5-5-5-5--2-2-2--5-8--|
E|-------6-5--1-1-1----|--0-0-0--3-6-----------4-4-4-4--3-3-3-3--0-0-0--3-6--|

			          Verse/Chorus
E|------------------------------|--------------------------------------------|
B|------------------------------|--------------------------------------------|
G|--7-7-7-7-----10-10-10-10-10--|--------------7-7-7-7-----------------------|
D|--7-7-7-7--8--10-10-10-10-10--|--2-2-2--5-8--7-7-7-7--6-6-6-6--5-5-5-5-----|
A|--5-5-5-5--8--8--8--8--8--8---|--2-2-2--5-8--5-5-5-5--6-6-6-6--5-5-5-5-----|
E|-----------6------------------|--0-0-0--3-6-----------4-4-4-4--3-3-3-3-----|
[ Tab from: http://www.guitaretab.com/a/american-nightmare/118245.html ]
						    Bridge
E|------------------------------------------------|--------------------------|
B|------------------------------------------------|--------------------(x2)--|
G|--------------7-7-7-7-----------10-10-10-10-10--|--------------------------|
D|--2-2-2--5-8--7-7-7-7--8-8-8-8--10-10-10-10-10--|--2--2-2-5--3-3-3--5------|
A|--2-2-2--5-8--5-5-5-5--8-8-8-8--8--8--8--8--8---|--2--2-2-5--3-3-3--5------|
E|--0-0-0--3-6-----------6-6-6-6------------------|--0--0-0-3--1-1-1--3------|

   Repeat Verse

   Bridge
E|---------------------------|-----------------------------------------------|
B|---------------------(x2)--|-------------------------------(x2)------------|
G|----------7-9-10-----------|-----------------------7-9-10------------------|
D|--2--2-2--7-9-10--2--------|--2-2-2-2-2-2-2-2-2-2--7-9-10------------------|
A|--2--2-2--5-7-8---2--------|--2-2-2-2-2-2-2-2-2-2--5-7-8-------------------|
E|--0--0-0----------0--------|--0-0-0-0-0-0-0-0-0-0--------------------------|

   Break
E|---------------------------------------------------------------------------|
B|---------------------------------------------------------------------------|
G|--9-9-9-9-----------------------------7-9-10-------------------------------|
D|-----------5-5-5-5--3-3-3-3--6-6-6-6--7-9-10---2-2-2-2--5-5-5-5--3-3-3-3---|
A|--7-7-7-7--5-5-5-5--3-3-3-3--6-6-6-6--5-7-8----2-2-2-2--5-5-5-5--3-3-3-3---|
E|-----------3-3-3-3--1-1-1-1--4-4-4-4-----------0-0-0-0--3-3-3-3--1-1-1-1---|

			        Outro
E|-------------|--------|-----|------------------------------------|---------||
B|-------------|--(x2)--|-----|------------------------------(x )--|---------||
G|-------------|--------|-----|------------------------------------|---------||
D|--6-x-6-x-6--|--------|--2--|--2-2-2--5-5-5--3-3-3--6-6-6--------|--2------||
A|--6-x-6-x-6--|--------|--2--|--2-2-2--5-5-5--3-3-3--6-6-6--------|--2------||
E|--4-x-4-x-4--|--------|--0--|--0-0-0--3-3-3--1-1-1--4-4-4--------|--0------||

===============================================================================
Related for Postmark My Compass tab
Advertisement will be closed in 10 seconds