Guitaretab - guitar tabs
Song name
# A B C D E F G H I J K L M N O P Q R S T U V W X Y Z

American Nightmare - I C You Are Felling Drake tab

-------------------------------------------------------------------------------
		I C YOU ARE FELLING DRAKE - American Nightmare
-------------------------------------------------------------------------------

By: Mike Crucial www.myspace.com/mikecrucial

   Intro		   Verse
E|-----------------------|---------------------------------------------------|
B|-----------------------|---------------------------------------------------|
G|-----------------------|---------3-3--7-7-7-----------------3-3------------|
D|---------4--4--4--2-5--|--4-4-4--3-3--7-7-7--5-5-5---4-4-4--3-3--2-2-2-----|
A|----4----4--4--4--2-5--|--4-4-4--1-1--5-5-5--5-5-5---4-4-4--1-1--2-2-2-----|
E|--2---2--2--2--2--0-3--|--2-2-2--------------3-3-3---2-2-2-------0-0-0-----|

					
E|----------------------------------------------------------|----------------|
B|----------------------------------------------------------|--(x2)----------|
G|-----------------3-3--7-7-7---------7-7-7-7--10-10-10-10--|----------------|
D|--5-5-5---4-4-4--3-3--7-7-7--5-5-5--7-7-7-7--10-10-10-10--|----------------|
A|--5-5-5---4-4-4--1-1--5-5-5--5-5-5--5-5-5-5--8--8--8--8---|----------------|
E|--3-3-3---2-2-2--------------3-3-3------------------------|----------------|
[ Tab from: http://www.guitaretab.com/a/american-nightmare/118246.html ]
   Chorus			Bridge 
E|----------------------------|--------------|        |----------------------|
B|----------------------------|--------------|        |----------------------|
G|-----------5-5--------------|-----------3--| Repeat |------------------5-5-|
D|--4---4-4--5-5--7-7--2-2-2--|--4-4-4--5-3--| Verse/ |--4-4-4-4-4--4-4--5-5-|
A|--4---4-4--3-3--7-7--2-2-2--|--4-4-4--5-1--| Chorus |--4-4-4-4-4--4-4--3-3-|
E|--2---2-2-------5-5--0-0-0--|--2-2-2--3----|        |--2-2-2-2-2--2-2------|

					Outro
E|---------------------------|--------|--------------------------------------|
B|---------------------------|--------|--------------------------------------|
G|------------------------3--|--------|-----------2-5-5-5-5------------------|
D|--7-7--2-2-2---4-4-4--5-3--|--4--4--|--4-4-4-4--2-5-5-5-5--4-4-4-4-4-4-4---|
A|--7-7--2-2-2---4-4-4--5-1--|--4--4--|--4-4-4-4--0-3-3-3-3--4-4-4-4-4-4-4---|
E|--5-5--0-0-0---2-2-2--3----|--2--2--|--2-2-2-2-------------2-2-2-2-2-2-2---|

E|------------------------------------|--------|-----------------------------||
B|------------------------------------|--(x )--|-----------------------------||
G|-----------2-5-5-5-5-----------3----|--------|-----------------------------||
D|--4-4-4-4--2-5-5-5-5--4-4-4-4--3-2--|--------|--4--4-4---------------------||
A|--4-4-4-4--0-3-3-3-3--4-4-4-4--1-2--|--------|--4--4-4---------------------||
E|--2-2-2-2-------------2-2-2-2----0--|--------|--2--2-2---------------------||

===============================================================================
Related for I C You Are Felling Drake tab