Song name
# A B C D E F G H I J K L M N O P Q R S T U V W X Y Z

American Nightmare - Your Arsonist tab

-------------------------------------------------------------------------------
		     YOUR ARSONIST - American Nightmare
-------------------------------------------------------------------------------

By: Mike Crucial www.myspace.com/mikecrucial

   Intro
E|---------------------------------------------------------------------------|
B|---------------------------------------------------------------------------|
G|--9-9-9--------------------------------------------------------------------|
D|--9-9-9--2-2-2--5-5-5--3-3-3--8-8-8--2-2-2-2-2-2-2--2-2-2--5-5-5--3-3-3----|
A|--7-7-7--2-2-2--5-5-5--3-3-3--8-8-8--2-2-2-2-2-2-2--2-2-2--5-5-5--3-3-3----|
E|---------0-0-0--3-3-3--1-1-1--6-6-6--0-0-0-0-0-0-0--0-0-0--3-3-3--1-1-1----|

E|---------------------------------------------------------------------------|
B|---------------------------------------------------------------------------|
G|---------7-7-7-7-7-7--5-5-5------------------------------------------------|
D|--8-8-8--7-7-7-7-7-7--3-3-3---2-2-2--5-5-5--3-3-3--8-8-8--2-2-2-2-2-2-2----|
A|--8-8-8--5-5-5-5-5-5----------2-2-2--5-5-5--3-3-3--8-8-8--2-2-2-2-2-2-2----|
E|--6-6-6-----------------------0-0-0--3-3-3--1-1-1--6-6-6--0-0-0-0-0-0-0----|

E|--------------------------|------------------------------------------------|
B|--------------------------|------------------------------------------------|
G|--------------------------|------------------------------7--7--------------|
D|--2-2-2--5-5-5--3-3-3--8--|--2--3-2-2-2--8-8-8--5-5-5-5--7--7--------------|
A|--2-2-2--5-5-5--3-3-3--8--|--2--3-2-2-2--8-8-8--5-5-5-5--5--5--------------|
E|--0-0-0--3-3-3--1-1-1--6--|--0--1-0-0-0--6-6-6--3-3-3-3--------------------|
 
   Verse					    Chorus
E|------------------------------------------|-----|--------------------------|
B|------------------------------------(x4)--|-----|--------------------------|
G|---------------------------7-7-7-7--------|-----|--------------------------|
D|--3-2-2-2--8-8-8--5-5-5-5--7-7-7-7--------|--2--|--2-2-2--5-5-5--3-3-3-----|
A|--3-2-2-2--8-8-8--5-5-5-5--5-5-5-5--------|--2--|--2-2-2--5-5-5--3-3-3-----|
E|--1-0-0-0--6-6-6--3-3-3-3-----------------|--0--|--0-0-0--3-3-3--1-1-1-----|

E|---------------------------------------------------------------------------|
B|---------------------------------------------------------------------------|
G|-----------------------------------------------------7-7-7-7-7-7-----------|
D|--8-8-8--2-2-2-2-2-2-2---2-2-2--5-5-5--3-3-3--8-8-8--7-7-7-7-7-7--3-3-3----|
A|--8-8-8--2-2-2-2-2-2-2---2-2-2--5-5-5--3-3-3--8-8-8--5-5-5-5-5-5--3-3-3----|
E|--6-6-6--0-0-0-0-0-0-0---0-0-0--3-3-3--1-1-1--6-6-6---------------1-1-1----|

E|---------------------------------------------------------------------------|
B|---------------------------------------------------------------------------|
G|---------------------------------------------------------------------------|
D|--2-2-2--5-5-5--3-3-3--8-8-8--2-2-2-2-2-2-2---2-2-2--5-5-5--3-3-3--8-------|
A|--2-2-2--5-5-5--3-3-3--8-8-8--2-2-2-2-2-2-2---2-2-2--5-5-5--3-3-3--8-------|
E|--0-0-0--3-3-3--1-1-1--6-6-6--0-0-0-0-0-0-0---0-0-0--3-3-3--1-1-1--6-------|

   Outro
E|----------------------------------------------------|----------------------|
B|----------------------------------------------(x )--|----------------------|
G|------------------------5-5-5-5-5--2-2-2-2-2--------|----------------------|
D|--2-2-2-2-2--5-5-5-5-5--5-5-5-5-5--2-2-2-2-2--------|--2-2-2-2-2--5-5-5-5--|
A|--2-2-2-2-2--5-5-5-5-5--3-3-3-3-3--0-0-0-0-0--------|--2-2-2-2-2--5-5-5-5--|
E|--0-0-0-0-0--3-3-3-3-3------------------------------|--0-0-0-0-0--3-3-3-3--|

E|---------------------------------------------------------------------------||
B|---------------------------------------------------------------------------||
G|-----5-5-5-5-5--7-5-----------12--12--12-----------------------------------||
D|--5--5-5-5-5-5--7-5-7-7-5--2-----------------------------------------------||
A|--5--3-3-3-3-3--5-3-7-7-5--2--10--10--10-----------------------------------||
E|--3-----------------5-5-3--0-----------------------------------------------||

===============================================================================
Tap to rate this tab
# A B C D E F G H I J K L M N O P Q R S T U V W X Y Z