Song name
# A B C D E F G H I J K L M N O P Q R S T U V W X Y Z

American Nightmare - We Are tab

-------------------------------------------------------------------------------
			 WE ARE - American Nightmare
-------------------------------------------------------------------------------

By: Mike Crucial www.myspace.com/mikecrucial

   Intro				Verse      
E|------------------------------------|--------------------------------------|
B|------------------------------(x2)--|--------------------------------------|
G|---------4-4-4---------7-7-7--------|--6-6-6-6--7-7-7-7--9-9-9-9--7-7-7-7--|
D|--2-2-2--4-4-4--5-5-5--7-7-7--------|--6-6-6-6--7-7-7-7--9-9-9-9--7-7-7-7--|
A|--2-2-2--2-2-2--5-5-5--5-5-5--------|--4-4-4-4--5-5-5-5--7-7-7-7--5-5-5-5--|
E|--0-0-0---------3-3-3---------------|--------------------------------------|

E|---------------------------------------------------------------------------|
B|---------------------------------------------------------------------------|
G|--6-6-6-6--7-7-7-7--9-9-9-9--7-7-7-7---6-6-6-6--7-7-7-7--9-9-9-9--7-7-7-7--|
D|--6-6-6-6--7-7-7-7--9-9-9-9--5-5-5-5---6-6-6-6--7-7-7-7--9-9-9-9--7-7-7-7--|
A|--4-4-4-4--5-5-5-5--7-7-7-7------------4-4-4-4--5-5-5-5--7-7-7-7--5-5-5-5--|
E|---------------------------------------------------------------------------|

E|------------------------------------------------|--0-----------------------|
B|------------------------------------------------|--1-----------------------|
G|--6-6-6-6--7-7-7-7---------------------------5--|--0-----------------------|
D|--6-6-6-6--7-7-7-7--7-7-7-7--5-5-5-5--4-4-4--5--|--^-----------------------|
A|--4-4-4-4--5-5-5-5-----------5-5-5-5--4-4-4--3--|--[ups]-------------------|
E|--------------------5-5-5-5--3-3-3-3--2-2-2-----|--------------------------|

   Repeat Verse

   Chorus
E|---------------------------------------------------------------------------|
B|---------------------------------------------------------------------------|
G|-------------------------------9-9-9-9--7-7-7-7--6-6-6-6-6--7-7-7-7-7------|
D|--4-4-4---------7-7-7-7-7-7-7--9-9-9-9--7-7-7-7--4-4-4-4-4--7-7-7-7-7------|
A|---------5-5-5-----------------7-7-7-7--5-5-5-5-------------5-5-5-5-5------|
E|---------------------------------------------------------------------------|

E|-----------------------------------------------------------0---------------|
B|-----------------------------------------------------------0---------------|
G|--4-4-4-4--6-6-6-6-6-6---7-7-7-7--4-4-4-4--9-9-9-9-9--*-*------------------|
D|--4-4-4-4----------------7-7-7-7--4-4-4-4--7-7-7-7-7--4-4------------------|
A|--2-2-2-2--4-4-4-4-4-4---5-5-5-5--2-2-2-2-------------4-4------------------|
E|------------------------------------------------------2-2------------------|

   Verse
E|---------------------------------------------------------------------------|
B|---------------------------------------------------------------------------|
G|--6-6-6-6--7-7-7-7--9-9-9-9--7-7-7-7---6-6-6-6--7-7-7-7--9-9-9-9--*-*-*----|
D|--6-6-6-6--7-7-7-7--9-9-9-9--7-7-7-7---6-6-6-6--7-7-7-7--9-9-9-9--5-5-5----|
A|--4-4-4-4--5-5-5-5--7-7-7-7--5-5-5-5---4-4-4-4--5-5-5-5--7-7-7-7--5-5-5----|
E|------------------------------------------------------------------3-3-3----|

E|---------------------------------------------------------------------------|
B|---------------------------------------------------------------------------|
G|--6-6-6-6--7-7-7-7-----------7-7-7-7---6-6-6-6--7-7-7-7--------------------|
D|--6-6-6-6--7-7-7-7--2-2-2-2--7-7-7-7---6-6-6-6--7-7-7-7--7-7-7-7--5-5-5-5--|
A|--4-4-4-4--5-5-5-5--2-2-2-2--5-5-5-5---4-4-4-4--5-5-5-5--7-7-7-7--5-5-5-5--|
E|--------------------0-0-0-0------------------------------5-5-5-5--3-3-3-3--|

		Break  	
E|------------|--------------------------------------------------------------|
B|------------|------------------------------8-------------------------------|
G|---------5--|-----------5--5-5-5-5-4-2-----11-----5-4----------------------|
D|--4-4-4--5--|--4-4-4--4-5--5-5-5-5-4-2--4------4--5-4----------------------|
A|--4-4-4--3--|--4-4-4--4-3--3-3-3-3/2-0--4------4--3-2----------------------|
E|--2-2-2-----|--2-2-2--2-----------------2------2---------------------------|

E|----------------------------------------------|----------------|-----------|
B|-----------------------------0-------0--(x )--|-------0--(x )--|-----------|
G|-----------5-5-5-5-5-5-------0-------0--------|-------0--------|-----5-----|
D|--4-4-4-4--5-5-5-5-5-5--4--5-4--4--5-4--------|--4--5-4--------|--4--5-----|
A|--4-4-4-4--3-3-3-3-3-3--4--3-2--4--3-2--------|--4--3-2--------|--4--3-----|
E|--2-2-2-2---------------2-------2-------------|--2-------------|--2--------|

   Chorus
E|---------------------------------------------------------------------------|
B|---------------------------------------------------------------------------|
G|--6-6-6-6--7-7-7-7---------9-9-9--7-7-7--6-6-6---9-9-9-9--7-7-7-7----------|
D|--4-4-4-4--7-7-7-7--7-7-7------------------------9-9-9-9--7-7-7-7--4-4-4---|
A|-----------5-5-5-5---------7-7-7--5-5-5--4-4-4---7-7-7-7--5-5-5-5----------|
E|---------------------------------------------------------------------------|

E|---------------------------------------------------------------------------|
B|---------------------------------------------------------------------------|
G|---------7-7-7-7--4-4-4-4--6-6-6--9-9-9--7-7-7--6-6-6---7-7-7-7--4-4-4-4---|
D|--7-7-7--7-7-7-7--4-4-4-4-------------------------------7-7-7-7--4-4-4-4---|
A|---------5-5-5-5--2-2-2-2--4-4-4--7-7-7--5-5-5--4-4-4---5-5-5-5--2-2-2-2---|
E|---------------------------------------------------------------------------|

                 Outro
E|-------------|--------------------------------|----------------------------|
B|-------------|--------------------------(x2)--|----------------------------|
G|--9-9-9-9-9--|--7-7--4-4-----9-9-9-9-9--------|--9-9--4-4----6-6-6-6-------|
D|--7-7-7-7-7--|--7-7--4-4--2--7-7-7-7-7--------|--9-9--4-4-2--6-6-6-6-------|
A|-------------|--5-5--2-2--2-------------------|--7-7--2-2-2--4-4-4-4-------|
E|-------------|------------0-------------------|-----------0----------------|

E|--------------------------------2------------------------------------------||
B|--------------------------------2------------------------------------------||
G|--7-7-7--4-4-4--9-9-9-9----------------------------------------------------||
D|--7-7-7--4-4-4--7-7-7-7---4-4----------------------------------------------||
A|--5-5-5--2-2-2------------4-4----------------------------------------------||
E|--------------------------2-2----------------------------------------------||

===============================================================================
Tap to rate this tab
 
# A B C D E F G H I J K L M N O P Q R S T U V W X Y Z