Song name
# A B C D E F G H I J K L M N O P Q R S T U V W X Y Z

American Nightmare - Hearts tab

-------------------------------------------------------------------------------
			  HEARTS - American Nighmare
-------------------------------------------------------------------------------

By: Mike Crucial www.myspace.com/mikecrucial

		Verse
E|------------|--------------------------------------------------------------|
B|------------|--------------------------------------------------------------|
G|--3----5----|--9-9-9-9-9-----------5-5-5-----7-7-7-7-7--10---------5-------|
D|--3-4--5-6--|--9-9-9-9-9--8-8-8-8--5-5-5--6--7-7-7-7-7--10--8-8-8--5--6----|
A|--1-4--3-6--|--7-7-7-7-7--8-8-8-8--3-3-3--6--5-5-5-5-5--8---8-8-8--3--6----|
E|----2----4--|-------------6-6-6-6---------4-----------------6-6-6-----4----|

E|-----------------------------------------------------------(12)-(12)-(12)--|
B|---------------------------------------------------------------------------|
G|---------------3-3-3-3--5---------------------9-9-9-9-9-9------------------|
D|--2-2-2-2-2-2--3-3-3-3--5--6---2-2-2-2-2-2-2-------------------------------|
A|--2-2-2-2-2-2--1-1-1-1--3--6---2-2-2-2-2-2-2--7-7-7-7-7-7------------------|
E|--0-0-0-0-0-0--------------4---0-0-0-0-0-0-0-------------------------------|

E|--(12)-(12)-(12)-(12)-(12)-(12)-(12)-(12)-(12)-(12)-(12)-------------------|
B|---------------------------------------------------------------------------|
G|------------------------------------------------------------------9--------|
D|----------------------------------------------------------8-8-8------------|
A|----------------------------------------------------------8-8-8-------\----|
E|----------------------------------------------------------6-6-6------------|

   Chorus
E|---------------------------------------------------------------------------|
B|---------------------------------------------------------------------------|
G|-----------5-5-5-5-----------3-3-3-3-----------5-5-5-5--9-9-9-9------------|
D|--2-2-2-2--5-5-5-5--2-2-2-2--3-3-3-3--2-2-2-2--5-5-5-5-----------8-8-8-8---| Repeat
A|--2-2-2-2--3-3-3-3--2-2-2-2--1-1-1-1--2-2-2-2--3-3-3-3--7-7-7-7--8-8-8-8---|
E|--0-0-0-0-----------0-0-0-0-----------0-0-0-0--------------------6-6-6-6---|

E|---------------------------------------------------------------------------|
B|---------------------------------------------------------------------------|
G|---------------------------------------------------------------------------|
D|--2--2---------------------------------------------------------------------|
A|--2--2---------------------------------------------------------------------|
E|--0--0---------------------------------------------------------------------|

===============================================================================
Tap to rate this tab
 
# A B C D E F G H I J K L M N O P Q R S T U V W X Y Z