Song name
# A B C D E F G H I J K L M N O P Q R S T U V W X Y Z

American Nightmare - God Save The Queen tab

Help us improve GuitareTab! Take a short survey!
-------------------------------------------------------------------------------
		     GOD SAVE THE QUEEN - American Nighmare
-------------------------------------------------------------------------------

By: Mike Crucial www.myspace.com/mikecrucial

   Intro			   Verse
E|-------------------------------|-------------------------------------------|
B|-------------------------------|-------------------------------------------|
G|--6-4---6--7-4-----4-4-4--7-6--|-------------7-7-7--6-6---------6-6--4-4---|
D|--6-4-4-6--7-4--6--4-4-4--7-6--|--6-6-6-4-6--7-7-7--6-6--4-4-4--6-6--4-4---|
A|--4-2-4-4--5-2--6--2-2-2--5-4--|--6-6-6-4-6--5-5-5--4-4--4-4-4--4-4--2-2---|
E|------2---------4--------------|--4-4-4-2-4--------------2-2-2-------------|

					    Chorus
E|----------------------------------------|----------------------------------|
B|----------------------------------------|----------------------------------|
G|-------------7-7-7--6-6---------6-6--7--|--9-9-9-9--4-4-4-4--6-------------|
D|--6-6-6-4-6--7-7-7--6-6--4-4-4--6-6--7--|--------------------6-6-6-6-6-6---|
A|--6-6-6-4-6--5-5-5--4-4--4-4-4--4-4--5--|--7-7-7-7--2-2-2-2--4-6-6-6-6-6---|
E|--4-4-4-2-4--------------2-2-2----------|----------------------4-4-4-4-4---|

E|---------------------------------------------------------------------------|
B|---------------------------------------------------------------------------|
G|--9-9-9-9--4-4-4-4---------6-6-6-6---9-9-9-9--4-4-4-4--6-------------------|
D|--------------------4-4-4--4-4-4-4---------------------6-6-6-6-6-6--4-4-4--|
A|--7-7-7-7--2-2-2-2--4-4-4------------7-7-7-7--2-2-2-2--4-6-6-6-6-6--4-4-4--|
E|--------------------2-2-2--------------------------------4-4-4-4-4--2-2-2--|

						      Outro
E|-----|-----------------------|--------------------|------------------------|
B|-----|-----------------(x2)--|--------------------|------------------------|
G|--7--|--------6--4-----------|-----------6-6-6-6--|---------7-7-7--6-6-6---|
D|--7--|--6--4--6--4--6--------|--4-4-4-4--4-4-4-4--|--6-6-6--7-7-7--6-6-6---|
A|--5--|--6--4--4--2--6--------|--4-4-4-4-----------|--6-6-6--5-5-5--4-4-4---|
E|-----|--4--2--------4--------|--2-2-2-2-----------|--4-4-4-----------------|

E|------------------------------------------------------|--------|-----------||
B|------------------------------------------------------|--(x2)--|-----------||
G|---------6-6-6--4-4-4--6-6-6-6--4-4-4-4---------------|--------|-----------||
D|--4-4-4--6-6-6--4-4-4--6-6-6-6--4-4-4-4--6-6-6-6-6-6--|--------|--6-6-6-6--||
A|--4-4-4--4-4-4--2-2-2--4-4-4-4--2-2-2-2--6-6-6-6-6-6--|--------|--6-6-6-6--||
E|--2-2-2----------------------------------4-4-4-4-4-4--|--------|--4-4-4-4--||

===============================================================================
Related for God Save The Queen tab