Guitaretab - guitar tabs
Song name
# A B C D E F G H I J K L M N O P Q R S T U V W X Y Z

American Nightmare - We Killed It tab

Give Up The Ghost  We Killed It

Tabbed By Mitch Long
Standard Tuning


Intro:
|-----------------------------------------|
|-----------------------------------------|
|--4/55--55-----------444--44--777--77----|	x2
|--4/55--55--666--66--444--44--777--77----|
|--2/33--33--666--66--222--22--555--55----|
|------------444--44----------------------|

Verse 1:
|---------------------------------------------|
|---------------------------------------------|
|--55555555------------44444444--77777777-----|	     x6
|--55555555--66666666--44444444--77777777-----|
|--33333333--66666666--22222222--55555555-----|
|------------44444444-------------------------|

Bridge 1:
|------------------------------------|
|------------------------------------|
|---------------44444444444444-------|		x2
|--2---2---2----44444444444444-------|
|--2---2---2----22222222222222-------|
|--0---0---0-------------------------|
[ Tab from: http://www.guitaretab.com/a/american-nightmare/87121.html ]
Bridge 2:
|--------------------------------|
|--------------------------------|
|-55555---------5/77-------------|	x2
|-55555--66666--5/77--666--555---|
|-33333--66666--3/55--666--555---|
|--------44444--------444--333---|

Verse 2:
|--------------------------------------------------|
|--------------------------------------------------|
|----5--55/--5--5--5--5--5--5--5--5--5--5----------|
|----5--55/--5--5--5--5--5--5--5--5--5--5----------|
|----3--33/--3--3--3--3--3--3--3--3--3--3----------|
|--------------------------------------------------|

Bridge 2: x2

Bridge 1: x4

Solo Thingy...?


Outro:
|---------------------------------------------------|
|---------------------------------------------------|
|---44444----555555------777777777----5555555-------|	x6
|---44444----555555------777777777----5555555-------|
|---22222----333333------555555555----3333333-------|
|---------------------------------------------------|

Finish on...
|------|
|------|
|------|
|--2r--|
|--2r--|
|--0r--|

r= let ring

Email me with any errors.

fallingapart_attheseams@hotmail.com
Related for We Killed It tab