Song name
# A B C D E F G H I J K L M N O P Q R S T U V W X Y Z

American Pearl - Bleed tab

Artist: American Pearl
Song: Bleed/Believe
Tabbed by: Wade Bennett 
E-mail:capt_winkie71@hotmail.com

This is a great song! After Sept.11 American Pearl had this bright 
idea to change a couple of words in the song to make it a tribute 
song. The original is called Bleed, the re-write is called Believe.

               *Verse*

e|------2-------------2---------------|
b|--------2---2---------2-----2-------|
G|------------------------------------|
D|---4------4------4-------4----------|
A|-4-------------4--------------------|
E|-2-------------2--------------------|

e|---------------------------|----|---------------------------|
b|-------4----------4--------|----|---------------------------|
G|-----4---4------4---4------|----|-------8-----------8-------|
D|---4-------4--4-------4----|-OR-|-----9---9-------9---9-----|
A|-2----------2-----------2--|----|---9-------9---9-------9---|
E|---------------------------|----|-7-----------7-----------7-|

     *chorus*

  c#    B  F#             C#     B   F#
e|--4----2---2------------9-----7----2--------------|
b|--6----4---2------------9-----7----2--------------|
G|--6----4---3------------10----8----3--------------|
D|--6----4---4----OR------11----9----4--------------|
A|--4----2---4------------11----9----4--------------|
E|-----------2------------9-----7----2--------------|
Tap to rate this tab
# A B C D E F G H I J K L M N O P Q R S T U V W X Y Z