Song name
# A B C D E F G H I J K L M N O P Q R S T U V W X Y Z

American Standards - Misery Relapse tab

-------------------------------------------------------------------------------
                             MISERY RELAPSE - American Standards
-------------------------------------------------------------------------------
Tabbed by: Brennen Westermeyer
E-mail: MotionManagementAZ@Gmail.com

Tuning: CGCFAD



Intro x4

d|------------------------------|-------------------------------|
a|--------2--------2------------|--------2--------2-------------|
f|--------2--------2------------|--------2--------2-------------|
c|--4--1-----4--1------2-3-2----|--4--1-----4--1-----2/8-8-8-8--|
g|--4--1-----4--1------2-3-2----|--4--1-----4--1-----2/8-8-8-8--|
c|--4--1-----4--1---0--2-3-2----|--4--1-----4--1---0h2/8-8-8-8--|



Transition

d|------------------------------|
a|------------------------------|
f|--------------------7b--------|
c|--5-5-5-5-5-5-5-5-------------|
g|--5-5-5-5-5-5-5-5-------------|
c|--5-5-5-5-5-5-5-5-------------|



Verse x1

d|--------------------------------------|
a|--------------------------------------|
f|--------------------------------------|
c|-2-5-0--1-4-0--2-5-0--1-4-0--1-1-1-1--|
g|-2-5-0--1-4-0--2-5-0--1-4-0--1-1-1-1--|
c|-2-5-0--1-4-0--2-5-0--1-4-0--1-1-1-1--|





Chorus

d|-------------------------------------|-------------------------------------|
a|--------3-3-3---------3-3-3-----3-3--|--------2-2-2---------2-2-2-----2-2--|
f|--------3-3-3---------3-3-3-----3-3--|--------2-2-2---------2-2-2-----2-2--|
c|--5-5-5--------5-5-5--------5-5------|--4-4-4--------4-4-4--------4-4------|
g|--5-5-5--------5-5-5--------5-5------|--4-4-4--------4-4-4--------4-4------|
c|--5-5-5--------5-5-5--------5-5------|--4-4-4--------4-4-4--------4-4------|



d|-------------------------------------|----------------------------------|
a|--------3-3-3---------3-3-3-----3-3--|------2-------------2-------------|
f|--------3-3-3---------3-3-3-----3-3--|------2-------------2-------------|
c|--5-5-5--------5-5-5--------5-5------|--4------4------4------4---4-3-1--|
g|--5-5-5--------5-5-5--------5-5------|--4------4------4------4---4-3-1--|
c|--5-5-5--------5-5-5--------5-5------|--4------4------4------4---4-3-1--|





Verse/Stomp

d|------------------------------------------------------------------------------------------|
a|------------------------------------------------------------------------------------------|
f|------------------------------------------------------------------------------------------|
c|--1--0-0-0-0--1--0-0-0-0-0-0-0-0--1-0-1/4----1--0-0-0-0--1--0-0-0-0-0-0-0-0--11-11-11-11--|
g|--1--0-0-0-0--1--0-0-0-0-0-0-0-0--1-0-1/4----1--0-0-0-0--1--0-0-0-0-0-0-0-0--11-11-11-11--|
c|--1--0-0-0-0--1--0-0-0-0-0-0-0-0--1-0-1/4----1--0-0-0-0--1--0-0-0-0-0-0-0-0--11-11-11-11--|







Chords

d|---------------------------------------|
a|---------------------------------------|
f|---------------------------------------|
c|--11-11-11--4-4-4--2-2-2--5-5-5-5-5-5--|
g|--11-11-11--4-4-4--2-2-2--5-5-5-5-5-5--|
c|--11-11-11--4-4-4--2-2-2--5-5-5-5-5-5--|





Chorus

d|-------------------------------------|-------------------------------------|
a|--------3-3-3---------3-3-3-----3-3--|--------2-2-2---------2-2-2-----2-2--|
f|--------3-3-3---------3-3-3-----3-3--|--------2-2-2---------2-2-2-----2-2--|
c|--5-5-5--------5-5-5--------5-5------|--4-4-4--------4-4-4--------4-4------|
g|--5-5-5--------5-5-5--------5-5------|--4-4-4--------4-4-4--------4-4------|
c|--5-5-5--------5-5-5--------5-5------|--4-4-4--------4-4-4--------4-4------|
Tap to rate this tab
# A B C D E F G H I J K L M N O P Q R S T U V W X Y Z