Song name
# A B C D E F G H I J K L M N O P Q R S T U V W X Y Z

American Standards - Still Life tab

-------------------------------------------------------------------------------
                             STILL LIFE - American Standards
-------------------------------------------------------------------------------
Tabbed by: Brennen Westermeyer
E-mail: MotionManagementAZ@Gmail.com

Tuning: CGCFAD



Main Riff

Guitar 1

d|------------------|------------------|------------------|------------------|
a|------------------|------------------|------------------|------------------|
f|------------------|------------------|------------------|------------------|
c|-----------2------|-----------2------|-----------2------|-----------2------|
g|------------------|------------------|------------------|------------------|
C|-3------------2---|-3------------2---|-3------------2---|-3------------2---|


Guitar 2 (feedback/noise/pedal effects) 

d|------------------|------------------|------------------|------------------|
a|------------------|------------------|------------------|------------------|
f|------------------|------------------|------------------|------------------|
c|------------------|------------------|------------------|------------------|
g|------------------|------------------|------------------|------------------|
C|------------------|------------------|------------------|------------------|



Main Riff (cont.)

Guitar 1

d|------------------|------------------|------------------|------------------|
a|------------------|------------------|------------------|------------------|
f|------------------|------------------|------------------|------------------|
c|-----------2------|-----------2------|-----------2------|-----------2------|
g|------------------|------------------|------------------|------------------|
C|-3------------2---|-3------------2---|-3------------2---|-3------------2---|



Guitar 2 (feedback/noise/pedal effects) 

d|------------------|------------------|------------------|------------------|
a|------------------|------------------|------------------|------------------|
f|--9---------------|------------------|------------------|------------------|
c|------------------|------------------|------------------|------------------|
g|------------------|------------------|------------------|------------------|
C|------------------|------------------|------------------|------------------|



Chorus

d|----------------------------|----------------------------|
a|----------------------------|----------------------------|
f|-----------9----------------|-----------9----------------|
c|-3---------x--2-------------|-3---------x--2-------------|
g|-3---------7--2-------------|-3---------7--2-------------|
C|-3------------2-------------|-3------------2-------------|


Guitar 2 

d|-----------------10--8------|-----------------10--8--12--|
a|------------------------12--|----------------------------|
f|-10--------12-9-------------|-10--------12-9-------------|
c|----------------------------|----------------------------|
g|----------------------------|----------------------------|
C|----------------------------|----------------------------|



Main Riff

Guitar 1

d|------------------|------------------|------------------|------------------|
a|------------------|------------------|------------------|------------------|
f|------------------|------------------|------------------|------------------|
c|-----------2------|-----------2------|-----------2------|-----------2------|
g|------------------|------------------|------------------|------------------|
C|-3------------2---|-3------------2---|-3------------2---|-3------------2---|



Guitar 2 (feedback/noise/pedal effects) 

d|------------------|------------------|------------------|------------------|
a|------------------|------------------|------------------|------------------|
f|--10--------------|------------------|------------------|------------------|
c|------------------|------------------|------------------|------------------|
g|------------------|------------------|------------------|------------------|
C|------------------|------------------|------------------|------------------|



Chorus

d|----------------------------|----------------------------|
a|----------------------------|----------------------------|
f|-----------9----------------|-----------9----------------|
c|-3---------x--2-------------|-3---------x--2-------------|
g|-3---------7--2-------------|-3---------7--2-------------|
C|-3------------2-------------|-3------------2-------------|



Guitar 2 

d|----------------------------|----------------------------|
a|----------------------------|----------------------------|
f|-----------9----------------|-----------9----------------|
c|-3---------x--2-------------|-3---------x--2-------------|
g|-3---------7--2-------------|-3---------7--2-------------|
C|-3------------2-------------|-3------------2-------------|



Bridge

Guitar 1

d|-----------5------|-----------5--12b-|-----------5------|-----------5--12b-|
a|-----5--6-----5b--|------5--6--------|-----5--6-----5b--|------5--6--------|
f|-2----------------|-2----------------|-2----------------|-2----------------|
c|------------------|------------------|------------------|------------------|
g|------------------|------------------|------------------|------------------|
C|------------------|------------------|------------------|------------------|




Guitar 2 (Unsure how to play this part for sure)

d|------------------|------------------|------------------|------------------|
a|------------------|------------------|------------------|------------------|
f|------------------|------------------|------------------|------------------|
c|------------------|------------------|------------------|------------------|
g|------------------|------------------|------------------|------------------|
C|------------------|------------------|------------------|------------------|



Chorus

d|------------------|------------------|------------------|------------------|
a|------------------|------------------|------------------|------------------|
f|-----------9------|-----------9------|-----------9------|-----------9------|
c|-3---------x--2---|-3---------x--2---|-3---------x--2---|-3---------x--2---|
g|-3---------7--2---|-3---------7--2---|-3---------7--2---|-3---------7--2---|
C|-3------------2---|-3------------2---|-3------------2---|-3------------2---|



Guitar 2 

d|------------------|------------------|------------------|------------------|
a|------------------|------------------|------------------|------------------|
f|-----------9------|-----------9------|-----------9------|-----------9------|
c|-3---------x--2---|-3---------x--2---|-3---------x--2---|-3---------x--2---|
g|-3---------7--2---|-3---------7--2---|-3---------7--2---|-3---------7--2---|
C|-3------------2---|-3------------2---|-3------------2---|-3------------2---|




Outro

Main Riff

Guitar 1

d|------------------|------------------|------------------|------------------|
a|------------------|------------------|------------------|------------------|
f|------------------|------------------|------------------|------------------|
c|-----------2------|-----------2------|-----------2------|-----------2------|
g|------------------|------------------|------------------|------------------|
C|-3------------2---|-3------------2---|-3------------2---|-3------------2---|



Guitar 2 (feedback/noise/pedal effects) 

d|------------------|------------------|------------------|------------------|
a|------------------|------------------|------------------|------------------|
f|------------------|------------------|------------------|------------------|
c|------------------|------------------|------------------|------------------|
g|------------------|------------------|------------------|------------------|
C|------------------|------------------|------------------|------------------|




Check out AMERICAN STANDARDS!

www.facebook.com/AmericanStandards
http://AmericanStndrds.bandcamp.com
www.twitter.com/AmericanStndrds
www.instagram.com/AmericanStandards
Tap to rate this tab
# A B C D E F G H I J K L M N O P Q R S T U V W X Y Z