Song name
# A B C D E F G H I J K L M N O P Q R S T U V W X Y Z

American Standards - The Red Queen tab

-------------------------------------------------------------------------------
                             SONG NAME - Band Name
-------------------------------------------------------------------------------
Tabbed by: Brennen Westermeyer
E-mail: MotionManagementAZ@Gmail.com

Tuning: CGCFAD


Guitars 1 & 2
d|-----------------------|-----------------------|-----------------------|-----------------------|
a|-----------------------|-----------------------|-----------------------|-----------------------|
f|-----------------------|-----------------------|-----------------------|-----------------------|
c|-5-4----5-4----5-4--7--|-5-4----5-4----5-4--7--|-5-4----5-4----5-4--7--|-5-4----5-4----5-4--7--|
g|-3-4----3-4----3-4--7--|-3-4----3-4----3-4--7--|-3-4----3-4----3-4--7--|-3-4----3-4----3-4--7--|
C|---4------4------4--7--|---4------4------4--7--|---4------4------4--7--|---4------4------4--7--|


Guitars 1 & 2
d|------------------|------------------|------------------|------------------|
a|------------------|------------------|------------------|------------------|
f|------------------|------------------|------------------|------------------|
c|-5-4-3-0-7-6-0-4--|-5-4-3-0-7-6-0-4--|-5-4-3-0-7-6-0-4--|-5-4-3-0-7-6-0-4--|
g|-3-4-3-0-7-6-0-4--|-3-4-3-0-7-6-0-4--|-3-4-3-0-7-6-0-4--|-3-4-3-0-7-6-0-4--|
C|---4-3-0-7-6-0-4--|---4-3-0-7-6-0-4--|---4-3-0-7-6-0-4--|---4-3-0-7-6-0-4--|
Cont.
d|------------------|------------------|------------------|------------------|
a|------------------|------------------|------------------|------------------|
f|------------------|------------------|------------------|------------------|
c|-5-4-3-0-7-6-0-4--|-5-4-3-0-7-6-0-4--|-5-4-3-0-7-6-0-4--|-5-4-3-0-7-6-0-4--|
g|-3-4-3-0-7-6-0-4--|-3-4-3-0-7-6-0-4--|-3-4-3-0-7-6-0-4--|-3-4-3-0-7-6-0-4--|
C|---4-3-0-7-6-0-4--|---4-3-0-7-6-0-4--|---4-3-0-7-6-0-4--|---4-3-0-7-6-0-4--|


Break
Guitar 1
d|----------------------|----------------------|---------|
a|----------------------|----------------------|---------|
f|-7----10---7----13----|-7----10---7----13----|--8-8-8--|
c|-x----x----x-----x----|-x----x----x-----x----|--x-x-x--|
g|-5----8----5----11----|-5----8----5----11----|--6-6-6--|
C|----------------------|----------------------|---------|

Guitar 2... play x2 then:
d|----------------------|----------------------|--0-0-0--|
a|----------------------|----------------------|--4-4-4--|
f|--0----3----0----6----|----------------------|---------|
c|--0----3----0----6----|--0----3----0----6----|---------|
g|--0----3----0----6----|--0----3----0----6----|---------|
C|--0----3----0----6----|--0----3----0----6----|---------|



Guitars 1 & 2
d|------------------|------------------|------------------|------------------|
a|------------------|------------------|------------------|------------------|
f|------------------|------------------|------------------|------------------|
c|-5-4-3-0-7-6-0-4--|-5-4-3-0-7-6-0-4--|-5-4-3-0-7-6-0-4--|-5-4-3-0-7-6-0-4--|
g|-3-4-3-0-7-6-0-4--|-3-4-3-0-7-6-0-4--|-3-4-3-0-7-6-0-4--|-3-4-3-0-7-6-0-4--|
C|---4-3-0-7-6-0-4--|---4-3-0-7-6-0-4--|---4-3-0-7-6-0-4--|---4-3-0-7-6-0-4--|




Break
Guitar 1
d|----------------------|----------------------|----------------------|----------------------|
a|----------------------|----------------------|----------------------|----------------------|
f|-7----10---7----13----|-7----10---7----13----|-7----10---7----13----|-7----10---7----13----|
c|-x----x----x-----x----|-x----x----x-----x----|-x----x----x-----x----|-x----x----x-----x----|
g|-5----8----5----11----|-5----8----5----11----|-5----8----5----11----|-5----8----5----11----|
C|----------------------|----------------------|----------------------|----------------------|

Guitar 2
d|----------------------|----------------------|----------------------|----------------------|
a|----------------------|----------------------|----------------------|----------------------|
f|--0----3----0----6----|----------------------|----------------------|----------------------|
c|--0----3----0----6----|--0----3----0----6----|--0----3----0----6----|--0----3----0----6----|
g|--0----3----0----6----|--0----3----0----6----|--0----3----0----6----|--0----3----0----6----|
C|--0----3----0----6----|--0----3----0----6----|--0----3----0----6----|--0----3----0----6----|



Chorus
Guitar 1 & 2
d|--------------------|--------------------|--------------------|--------------------------|
a|--------------------|--------------------|--------------------|--------------------------|
f|------10--13--------|------10--13--------|------10--13--------|--------------------------|
c|-1-0--x----x--6-5---|-1-0--x----x--6-5---|-1-0--x----x--6-5---|-1-0--0--1-1-1-1-1-1-1-1--|
g|-1-0--8---11--6-5---|-1-0--8---11--6-5---|-1-0--8---11--6-5---|-1-0--0--1-1-1-1-1-1-1-1--|
C|-1-0----------6-5---|-1-0----------6-5---|-1-0----------6-5---|-1-0--0--1-1-1-1-1-1-1-1--|


Build Up
Guitar 1
d|--------------------|-----------*3*------|--------------------|------------------|
a|--------------------|-----------*3*------|--------------------|------------------|
f|--------------------|-----------*3*------|--------------------|------------------|
c|-1-0-0-0------------|-1-0-0-0-------*3*--|-1-0-0-0------------|-1-0-0-0----------|
g|-1-0-0-0------------|-1-0-0-0-------*3*--|-1-0-0-0------------|-1-0-0-0----------|
C|-1-0-0-0------------|-1-0-0-0-------*3*--|-1-0-0-0------------|-1-0-0-0----------|

Guitar 2
d|--------------------|--------------------|--------------------|------------------|
a|--------------------|--------------------|--------------------|------------------|
f|--------------------|--------------------|--------------------|------------------|
c|-1-0-0-0------------|-1-0-0-0------------|-1-0-0-0------------|-1-0-0-0----------|
g|-1-0-0-0------------|-1-0-0-0------------|-1-0-0-0------------|-1-0-0-0----------|
C|-1-0-0-0------------|-1-0-0-0------------|-1-0-0-0------------|-1-0-0-0----------|



Outro
Guitar 1
d|--------------------|--------------------|--------------------|--------------------|
a|--------------------|--------------------|--------------------|--------------------|
f|--------------------|--------------------|--------------------|--------------------|
c|-1-0-0-0------------|-1-0-0-0------------|-1-0-0-0------------|-1-0-0-0------------|
g|-1-0-0-0------------|-1-0-0-0------------|-1-0-0-0------------|-1-0-0-0------------|
C|-1-0-0-0------------|-1-0-0-0------------|-1-0-0-0------------|-1-0-0-0------------|

Guitar 2
d|--------------------|--------------------|--------------------|--------------------|
a|--------11-11/10-10-|---------4-4-/-6-6--|--------11-11/10-10-|---------4-4-/-6-6--|
f|---------7-7-/-7-7--|---------7-7-/-7-7--|---------7-7-/-7-7--|---------7-7-/-7-7--|
c|-1-0-0-0------------|-1-0-0-0------------|-1-0-0-0------------|-1-0-0-0------------|
g|-1-0-0-0------------|-1-0-0-0------------|-1-0-0-0------------|-1-0-0-0------------|
C|-1-0-0-0------------|-1-0-0-0------------|-1-0-0-0------------|-1-0-0-0------------|


Jam
Tap to rate this tab
# A B C D E F G H I J K L M N O P Q R S T U V W X Y Z