American Werewolves - Untamed Youth tab

-----------------------------------------------------------------------------
                                 Monster Movie
-----------------------------------------------------------------------------
Song: Monster Movie
Artist: American Werewolves
Album:Kings Of the Cleveland Streets
Tuning: Standard

a very simple song yet i have no idea if i tabbed it right but give it a look over and 
if somethings wrong please feel free to comment :)

Intro:
e-------------------------------------------------------------|
b-------------------------------------------------------------|
g----------------7--7-7-7-7-7-7-5--5-5-5-5-5-5-7--7-7-7-7-7-7-|
d-5--5-5-5-5-5-5-7--7-7-7-7-7-7-5--5-5-5-5-5-5-7--7-7-7-7-7-7-|x2
a-5--5-5-5-5-5-5-5--5-5-5-5-5-5-3--3-3-3-3-3-3-5--5-5-5-5-5-5-|
e-3--3-3-3-3-3-3----------------------------------------------|

e----------------------------------------------|----------------------------|
b----------------------------------------------|----------------------------|
g----------------7--7-7-7-7-7-7-5--5-5-5-5-5-5-|----------------------------|
d-5--5-5-5-5-5-5-7--7-7-7-7-7-7-5--5-5-5-5-5-5-|-5--5-5-5-5-5-5--5--5-5-5-5-|
a-5--5-5-5-5-5-5-5--5-5-5-5-5-5-3--3-3-3-3-3-3-|-5--5-5-5-5-5-5--5--5-5-5-5-|
e-3--3-3-3-3-3-3-------------------------------|-3--3-3-3-3-3-3--3--3-3-3-3-|

e---------------------------------|
b---------------------------------|
g---------------------------------|
d-5-5--5--5-5-5-5-5-5-5-5-5-5-5-5-|
a-5-5--5--5-5-5-5-5-5-5-5-5-5-5-5-|
e-3-3--3--3-3-3-3-3-3-3-3-3-3-3-3-|

e-------------------------------------------------------------|
b-------------------------------------------------------------|
g----------------7--7-7-7-7-7-7-5--5-5-5-5-5-5-7--7-7-7-7-7-7-|
d-5--5-5-5-5-5-5-7--7-7-7-7-7-7-5--5-5-5-5-5-5-7--7-7-7-7-7-7-|x6
a-5--5-5-5-5-5-5-5--5-5-5-5-5-5-3--3-3-3-3-3-3-5--5-5-5-5-5-5-|
e-3--3-3-3-3-3-3----------------------------------------------|

e---------------------------------3-2--|
b-4b~--3b~--4b~--3b~--4b~--3b~--4------|
g--------------------------------------|
d--------------------------------------|
a--------------------------------------|
e--------------------------------------|
"Night Creatures are in the ground......"

e-------------------------------------------------------------|
b-------------------------------------------------------------|
g----------------7--7-7-7-7-7-7-5--5-5-5-5-5-5-7--7-7-7-7-7-7-|
d-5--5-5-5-5-5-5-7--7-7-7-7-7-7-5--5-5-5-5-5-5-7--7-7-7-7-7-7-|x2
a-5--5-5-5-5-5-5-5--5-5-5-5-5-5-3--3-3-3-3-3-3-5--5-5-5-5-5-5-|
e-3--3-3-3-3-3-3----------------------------------------------|

e----------------------------------------------|----------------------------|
b----------------------------------------------|----------------------------|
g----------------7--7-7-7-7-7-7-5--5-5-5-5-5-5-|----------------------------|
d-5--5-5-5-5-5-5-7--7-7-7-7-7-7-5--5-5-5-5-5-5-|-5--5-5-5-5-5-5--5--5-5-5-5-|
a-5--5-5-5-5-5-5-5--5-5-5-5-5-5-3--3-3-3-3-3-3-|-5--5-5-5-5-5-5--5--5-5-5-5-|
e-3--3-3-3-3-3-3-------------------------------|-3--3-3-3-3-3-3--3--3-3-3-3-|

e---------------------------------|
b---------------------------------|
g---------------------------------|
d-5-5--5--5-5-5-5-5-5-5-5-5-5-5-5-|
a-5-5--5--5-5-5-5-5-5-5-5-5-5-5-5-|
e-3-3--3--3-3-3-3-3-3-3-3-3-3-3-3-|


e----------------------------------------------------------|
b----------------------------------------------------------|
g----------------7--7-7-7-7-7-7-5--5-5-5-5-5-5-7--7--7--7--|
d-5--5-5-5-5-5-5-7--7-7-7-7-7-7-5--5-5-5-5-5-5-7--7--7--7--|x2
a-5--5-5-5-5-5-5-5--5-5-5-5-5-5-3--3-3-3-3-3-3-5--5--5--5--|
e-3--3-3-3-3-3-3-------------------------------------------|

e----------------------------------------------|----------------------------|
b----------------------------------------------|----------------------------|
g----------------7--7-7-7-7-7-7-5--5-5-5-5-5-5-|----------------------------|
d-5--5-5-5-5-5-5-7--7-7-7-7-7-7-5--5-5-5-5-5-5-|-5--5-5-5-5-5-5--5--5-5-5-5-|
a-5--5-5-5-5-5-5-5--5-5-5-5-5-5-3--3-3-3-3-3-3-|-5--5-5-5-5-5-5--5--5-5-5-5-|
e-3--3-3-3-3-3-3-------------------------------|-3--3-3-3-3-3-3--3--3-3-3-3-|

e---------------------------------|-----|
b---------------------------------|-----|
g---------------------------------|-----|
d-5-5--5--5-5-5-5-5-5-5-5-5-5-5-5-|--5--|
a-5-5--5--5-5-5-5-5-5-5-5-5-5-5-5-|--5--|
e-3-3--3--3-3-3-3-3-3-3-3-3-3-3-3-|--3--|

http://www.warbirdentertainment.com/amercianwerewolves.html
Tap to rate this tab
 
# A B C D E F G H I J K L M N O P Q R S T U V W X Y Z