Guitaretab - guitar tabs
Song name
# A B C D E F G H I J K L M N O P Q R S T U V W X Y Z

Amesoeurs - Bonheur Ampute tab

#------------------------------------PLEASE  NOTE------------------------------------------------#
#This file is the author's own work and represents their interpretation of the #
#song. You may only use this file for private study, scholarship, or research#
#------------------------------------------------------------------------------------------------#

Band   Amesoeurs
Album: Ruines Humaines
Song: Bonheur Ampute

Transcribed By: Elathen
Email:         ningalia87@yahoo.com

Copyright (c) Northern Silence Productions
Version 1.0 - 26/12/2007

Tuning E A D G B E


. - palm mute / - slide up to
 - slide down to ~ - vibrato
h - hammer on p - pull off
, - slight palm mute () - ghost note, sustained note
" " tremolo note <> - Trill

Suffixes for bend
f - full bend h - half bend
ph - pinched harmonic q - quarter bend
t - tap bend * - see comment
^ - Hold bend r - release bend
x  Staccato ~ - vibrato bend


Note: Do not expect this tab to be perfect, its merely my interpretation of this
song. 
use really distorted guitars in their music so its hard to hear, but it should be
an o.k interpretation.

Riff 1
|-------------------------|---------------|---------------------|
|-------------------------|---------------|---------------------|
|---------2-------------2-|------------2--|---------------------|
|---4--4--4--4-4--4--4--4-|--4-4--4-4--4--|--4--4--4--5-5--4----|
|---5--5--5--5-5--5--5--5-|--5-5--5-5--5--|--5--5--5--5-5--5----|
|-------------------------|---------------|---------------------|

Riff 2x2                                   x1
|---5"----3"------5"--------[0"]----------|---3"----3"------2"---------|
|---3"----3"------3"--------[0"]----------|---5"----4"------3"---------|
|-----------------------------------------|----------------------------|
|-----------------------------------------|----------------------------|
|-----------------------------------------|----------------------------|
|-----------------------------------------|----------------------------|
[ Tab from: http://www.guitaretab.com/a/amesoeurs/100930.html ]
Riff 3
|--------------------|-----------------------------|
|-3"--2"---3"--------|--3"----5"----7"-----10"-----|
|-5"--3----5"---3"---|--5"----6"----8"-----8"------|
|---------------5"---|-----------------------------|
|--------------------|-----------------------------|
|--------------------|-----------------------------|

Play Riff 2 x 3

Fill
|-10^----|
|-8^-----|
|--------|
|--------|
|--------|
|--------|

Play Riff 2 x 3

Riff3
Acoustic break: x 4                          x 2
|-------------------------------------------|--------------------------|
|-------------------------------------------|--------------------------|
|----------------------2--------------------|--------------------------|
|------------4--------------4---------------|----5----5----4-----------|
|-------5--------5--------------5-----------|--------------------------|
|--0----------------------------------0-----|--------------------------|

Play Riff 2 x 4

 x2                                x1
|---------------------------------|----------------|
|---------------------------------|----------------|
|---------------------------------|----------------|
|-2-2-2--3-3-3---2-2-2---2--2-2-2-|--2--2---1------|
|-2-2-2--3-3-3---2-2-2---2--2-2-2-|--2--2---1------|
|-0-0-0--1-1-1---4-4-4---0--0-1-1-|--0--0---0------|
                                     .  .   .
Riff 4
* Play Riff 1 on clean guitar 4 Times, followed wtih Distortion

Riff 5, Multi pick all notes for each of sets
|-------------------------------------------------------------------|
|-------------------------------------------------------------------|
|-------------------------------------------------------------------|
|---12------------12----11------------------------------------------|
|----------12--------------------12---------------------------------|
|-----------------------------------------14-----15----14-----------|

Riff 5 b
|---10------------10---9-------------------------------------------|
|-----------10----------------10-----------------------------------|
|--------------------------------------11-----12---11--------------|
|------------------------------------------------------------------|
|------------------------------------------------------------------|
|------------------------------------------------------------------|

Riff 5 c
|--10----12-----9------10-------14--------------------|
|-------------------------------------14---15^--------|
|-----------------------------------------------------|
|-----------------------------------------------------|
|-----------------------------------------------------|
|-----------------------------------------------------|

End.
Related for Bonheur Ampute tab