Song name
# A B C D E F G H I J K L M N O P Q R S T U V W X Y Z

Amesoeurs - Faiblesse Des Sens tab

Help us improve GuitareTab! Take a short survey!
Hey, I've only got parts of the song down. Try to figure more out yourself ;)

Intro:

e ---------------------------------|
B -------0-------------0-----------|
G -----5-------------5-----5-------|
D ---------------------------------|
A ---7-------------7---------------|
E -5-------------5-----------5-7---|

e -------------------------0-------|
B -------0-------------0-----0-----|
G -----5-------------5-------------|
D ---------------------------------|
A ---7-------------7---------------|
E -8-------------8-----------------|

Cool riff bit (it's played over the same thing, but an octave lower):

e -------------------------------------|
B -------------------------------------|
G -9-9-9-9-9-9-10-9----9-9-9-9-9-10-9--|
D -------------------------------------|
A -------------------------------------|
E -------------------------------------|

e -------------------------------------|
B -------------------------------------|
G -12-12-12-12-12-10-9-----------------|
D ---------------------10--------------|
A -------------------------------------|
E -------------------------------------|

repeat for a bit, then:


e -15-15-15-15-12-12-12-12-15-15-15-15-12-12-12-12-|
B -------------------------------------------------|
G -------------------------------------------------|
D -------------------------------------------------|
A -------------------------------------------------|
E -------------------------------------------------|

e -20-20-20-20-17-17-17-17-15-15-15-15-12-12-12-12-|
B -------------------------------------------------|
G -------------------------------------------------|
D -------------------------------------------------|
A -------------------------------------------------|
E -------------------------------------------------|

the notes are correct, i just haven't bothered to find out how many times you strike 
haha. that's something you can figure out yourself.
Related for Faiblesse Des Sens tab