Song name
# A B C D E F G H I J K L M N O P Q R S T U V W X Y Z

Amesoeurs - Amesoeurs tab

Amesoeurs - Amesoeurs - Amesoeurs
Tuning: Standard


E -9---9---9-------7---7--------------------------|
B ---9---9---9---9---9---9----9-10-9--------------|
G -------------9------------9---------------------|
D ------------------------------------------------|
A ------------------------------------------------|
E ------------------------------------------------|

E ---------------7--------------------------------|
B ---9---9---9-7---9---9---9-----9----------------|
G -6---6---6---------6---6---6-9------------------|
D ------------------------------------------------|
A ------------------------------------------------|
E ------------------------------------------------|


E ------------------------------------------------|
B ------------------------------------------------|
G -6~------------9~-------------------------------|
D -6~--9~--7~----9~-------------------------------|
A -4~--9~--7~----7~-------------------------------|
E -----7~--5~-------------------------------------|

all i got so far.
Tap to rate this tab
# A B C D E F G H I J K L M N O P Q R S T U V W X Y Z