Song name
# A B C D E F G H I J K L M N O P Q R S T U V W X Y Z

Amir Zaki - Day She Left tab

The Day She Left - Amir Zaki

Transcribed by: Riaz Docrat
If you have any comments let me know. riazdocrat@hotmail.com

P.M = palm mute
a/b = slide up
a\b = slide down
/a = slide up very fast to note (you should barely,if at all, hear the note you slide from.
(a) = optional note but sounds better with it
~ = Vibrato
r = release note from a bend (but don't play the note as you bend, only as you release)

Listen to the song to get the timing. I've separated the sections in the tab to show
where the pauses are if that helps.

Intro

e |10~~--7-8-10-7-4-5-7-4~------5-4-----------------------------|
B |--------------------------5-6---3-5-6-3~---------------------|
G |-------------------------------------------------------------|
D |-------------------------------------------------------------|
A |-------------------------------------------------------------|
E |-------------------------------------------------------------|

e |--4-7-10-7-8-10/13\12-16~--19--16--13--10--------------------|
B |3----------------------------18--15--12--9-10-12p10p9-6-5-6-9|
G |-------------------------------------------------------------|
D |-------------------------------------------------------------|
A |-------------------------------------------------------------|
E |-------------------------------------------------------------|

e |-------------------------------------------------------------|
B |5-3-5-6-0----------------------------------------------------|
G |---------4-5-7-4-1-2-4-1-------------------------------------|
D |------------------------2-3-6-2-3-/-6~-7~~~\0P.M-------------|
A |-------------------------------------------------------------|
E |-------------------------------------------------------------| 0.25



Main

verse

e |-12p10-8-7h8p7-----------------------------------------------|
B |--------------10~--10-9~-----10-9----------------------------|
G |9-------------------------7/9-----7-7h9p7--------------------|
D |-----------------------------------------10------------------|
A |-------------------------------------------------------------|
E |-------------------------------------------------------------|
					P.M
e |-12p10-8-7h8p7---------15-14~\(12)-12/14-/16-16-14-12-14-12-8|
B |--------------10~/13-----------------------------------------|
G |9--------------------14--------------------------------------|
D |-------------------------------------------------------------|
A |-------------------------------------------------------------|
E |-------------------------------------------------------------|

e |-12p10-8-7h8p7-----------------------------------------------|
B |--------------10~--12-9h10p9~-----9h10h12--------------------|
G |9-----------------------------/9-9--------7-7h9p7---9--------|
D |-------------------------------------------------10~---------|
A |-------------------------------------------------------------|
E |-------------------------------------------------------------|

e |-12p10-8-7h8p7---------15-14~\(12)-12/14-/16-16-14-12-14-12-8~/12|
B |--------------10~/13---------------------------------------------|
G |9--------------------14------------------------------------------|
D |-----------------------------------------------------------------|
A |-----------------------------------------------------------------|
E |-----------------------------------------------------------------|1.09



Bridge

e |--------12-10~---7-10-8~--8h10p8p7~/8-10/12------------------|
B |10-h-13--------8----------------------------10---------------|
G |-----------------------------------------------9-------------|
D |-------------------------------------------------7-----------|
A |-------------------------------------------------------------|
E |-------------------------------------------------------------|

e |--------12-14~---------14-13~-12h13p12\11~/12-12-13-12~------|
B |10 h 13--------10-h-13---------------------------------------|
G |-------------------------------------------------------------|
D |-------------------------------------------------------------|
A |-------------------------------------------------------------|
E |-------------------------------------------------------------|1.30



verse 2

e |-12p10-8-7h8p7-----------------------------------------------|
B |--------------10~-10-9~-----------9h10-9h10/12---------------|
G |9------------------------/9-9P.M-9----9--------7-7h9p7-------|
D |------------------------------------------------------10-9-7-|
A |-------------------------------------------------------------|
E |-------------------------------------------------------------|

e |-12p10-8-7h8p7---------15-14~\(12)-12/14-/16-16-14-12-14-12-8|
B |--------------10~/13-----------------------------------------|
G |9--------------------14--------------------------------------|
D |-------------------------------------------------------------|
A |-------------------------------------------------------------|
E |-------------------------------------------------------------|

e |-12p10-8-7h8p7----10-----------------------------------------|
B |--------------10~---12-10-9-10h12p10p9~----9h10h12-----------|
G |9---------------------------------------7/9--------7-9p7---9-|
D |--------------------------------------------------------10~--|
A |-------------------------------------------------------------|
E |-------------------------------------------------------------|

e |-12p10-8-7h8p7---------15-14~\(12)-12/14-/16-16-14-12-14-12-8~/12P.M|
B |--------------10~/13------------------------------------------------|
G |9--------------------14---------------------------------------------|
D |--------------------------------------------------------------------|
A |--------------------------------------------------------------------|
E |--------------------------------------------------------------------|2.15



Bridge 2 into solo

e |--------12-10~---7-10h12p10p8~-8h10p8p7-8-10-13--------------|
B |10-h-13--------8--------------------------------10-----------|
G |---------------------------------------------------9---------|
D |-----------------------------------------------------7-------|
A |-------------------------------------------------------------|
E |-------------------------------------------------------------|

e |--------12-14~---------14-13~-12h13p12\11~/12-12-13-12|
B |10-h-13--------10-h-13--------------------------------|
G |------------------------------------------------------|
D |------------------------------------------------------|
A |------------------------------------------------------|
E |------------------------------------------------------|

e |17-19p17-16/17--/12-10-8-17-16~/12-10-8~------16~-17-h-19-p-17-16h17|
B |-----------------------------------------10/12----------------------|
G |--------------------------------------------------------------------|
D |--------------------------------------------------------------------|
A |--------------------------------------------------------------------|
E |--------------------------------------------------------------------|

e |12/16-17-/12-10-8-15-14---------------13~-10P.M-/13p12\11/12-|
B |------------------------/10-8-7~-10/12-----------------------|
G |-------------------------------------------------------------|
D |-------------------------------------------------------------|
A |-------------------------------------------------------------|
E |-------------------------------------------------------------|

e |12p10p8p7--8--10/12~--12p10p8p7-7-10/12~-12-10-7---5-8/10~---|
B |---------10-10-----------------9-9--------------9-7-7--------|
G |-------------------------------------------------------------|
D |-------------------------------------------------------------|
A |-------------------------------------------------------------|
E |-------------------------------------------------------------|

e |10r-10-8-10-12-8-------------/12-17~16~-14-12-14-16-12-10-7--|
B |-----------------10~/13P.M---------------------------------9-|
G |------------------------------------------------------------9|
D |-------------------------------------------------------------|
A |-------------------------------------------------------------|
E |-------------------------------------------------------------|
	      fast slide
e |-----10-13~---10\4-13-12~-|
B |9/12--------9-------------|
G |--------------------------|
D |--------------------------|
A |--------------------------|
E |--------------------------|3.20



verse 3

e |-12p10-8-7h8p7---------fast-hammer-on------------------------|
B |--------------10~-10-9~-----9h10~p9--------------------------|
G |9-----------------------7/9---------7-7h9p7------------------|
D |--------------------------------------------10-9-7-----------|
A |-------------------------------------------------------------|
E |-------------------------------------------------------------|

e |-12p10-8-7h8p7---------15-14~\(12)12/14-/16-16-14-12-14-12-8-|
B |--------------10~/13-----------------------------------------|
G |9--------------------14--------------------------------------|
D |-------------------------------------------------------------|
A |-------------------------------------------------------------|
E |-------------------------------------------------------------|

e |-12p10-8-7h8p7-------10~---------------------------------------------|
B |--------------10~/13----12-10-9~-10h12p10p9\P.M----------9h10-9h10/12|
G |9-----------------------------------------------/9-9P.M-9----9-------|
D |---------------------------------------------------------------------|
A |---------------------------------------------------------------------|
E |---------------------------------------------------------------------|

e |-------------12p10-8-7h8p7---------15-14~\(12)12/14-/16-16-14-12-14-12-8|
B |--------------------------10~/13----------------------------------------|
G |7-7h9p7---9-9--------------------14-------------------------------------|
D |-------10~--------------------------------------------------------------|
A |------------------------------------------------------------------------|
E |------------------------------------------------------------------------|
4.04


Bridge 3

e |--------12-10~---7-10-8~-8h10p8p7-8-10-12--------------------|
B |10-h-13--------8--------------------------10-----------------|
G |---------------------------------------------9---------------|
D |-----------------------------------------------7-------------|
A |-------------------------------------------------------------|
E |-------------------------------------------------------------|

e |--------12-14~---------14-13~-12h13p12\11~/12-13-12~---------|
B |10-h-13--------10-h-13---------------------------------------|
G |-------------------------------------------------------------|
D |-------------------------------------------------------------|
A |-------------------------------------------------------------|
E |-------------------------------------------------------------|4.25



Outro

e |-12p10-8-7h8p7-----------------------------------------------|
B |--------------10~-10-9~----9h10h12---------------------------|
G |9-----------------------7/9--------7-7h9p7-------------------|
D |-------------------------------------------10-9-7------------|
A |-------------------------------------------------------------|
E |-------------------------------------------------------------|

e |-12p10-8-7h8p7---------15-14~\(12)12/14-/16-16~-14-12-14-12-8|
B |--------------10~/13-----------------------------------------|
G |9--------------------14--------------------------------------|
D |-------------------------------------------------------------|
A |-------------------------------------------------------------|
E |-------------------------------------------------------------|

e |-12p10-8-7h8p7-----------------------------------------------|
B |--------------10~-10-9~~~------------------------------------|
G |9------------------------------------------------------------|
D |-------------------------------------------------------------|
A |-------------------------------------------------------------|
E |-------------------------------------------------------------|4.54
Tap to rate this tab
# A B C D E F G H I J K L M N O P Q R S T U V W X Y Z