Song name
# A B C D E F G H I J K L M N O P Q R S T U V W X Y Z

Amon Amarth - God His Son And Holy Whore tab

Help us improve GuitareTab! Take a short survey!
Song: God, His Son and Holy Whore
Artist: Amon Amarth
Tuning: Drop B


Main Riff  (those are '10's, not 1's and 0's)

|------------------------------------------------------|
|------------------------------------------------------|
|------------------------------------------------------|
|------------------------------------------------------|
|---------8881010108887778877--------8881010108877777--|
|-00000000-------------------00000000------------------|



|-------------------|
|-------------------|
|-------------------|
|-------------------|
|-------------------|
|--77777710101010---|


Then Main Riff twice, then

|---------------------------------------------|
|---------------------------------------------|
|---------------------------------------------|
|---------------------------------------------|
|---------------------------------------------|
|--777777101010101010333333888888777777777----|


Verse

|---------------------------------------------------------------------|
|---------------------------------------------------------------------|
|---------------------------------------------------------------------|
|---------------------------------------------------------------------|
|-888888887778888771010101010888877777777777778877788877777555333555--|
|---------------------------------------------------------------------|


Chorus is the same as the main riff, only slower

This is right after the chorus, the rhythm parts behind the mini-solos.

|-----------------------------------|
|-----------------------------------|
|-----------------------------------|
|-----------------------------------|
|-8-----------------10--------------|
|-8-----------------10--------------|


Mini-solo 1:

|-----------------------------------------------------------------------|
|-11----11--13--15---13--15-13---15-13--11---13-11-11-10h11p10h11p10----|
|-----------------------------------------------------------------------|
|-----------------------------------------------------------------------|
|-----------------------------------------------------------------------|
|-----------------------------------------------------------------------|


|-----------------------|
|-----------------------|
|-----------------------|
|-----------------------|
|-0-----5--3--2--3--0---|
|-0-----5--3--2--3--0---|


Mini-solo 2:

|--------------------13--12h13p12-----10h12p10h12p10h12p10h12p10--|
|--11----11--13--15-----------------------------------------------|
|-----------------------------------------------------------------|
|-----------------------------------------------------------------|
|-----------------------------------------------------------------|
|-----------------------------------------------------------------|


Breakdown

|-------------------------------------------------------|
|-------------------------------------------------------|
|-------------------------------------------------------|
|-------------------------------------------------------|
|-------------------------------------------------------|
|-000000-0-0-0-000000-0-0-0-000000-0-0-0-000000-0-0-0---|
         . . .        . . .        . . .        . . .
Related for God His Son And Holy Whore tab