Guitaretab - guitar tabs
Song name
# A B C D E F G H I J K L M N O P Q R S T U V W X Y Z

Amon Amarth - Twilight Of The Thunder God New tab

I tabbed this out by ear, so there might be some mistakes, but as of right now, I don't 
there are any.

Artist: Amon Amarth
Song: Twilight of the Thunder God
Album: Twilight of the Thunder God
Tuning: B
En
p.s.- I have a bunch more of it tabbed, but this took long enough to type so therefore I 
not wish to put anymore up.  This is the cool part anyways.

Here's a link to the song if you haven't heard it yet
http://www.youtube.com/watch?v=mlylNJG9YrQ
[ Tab from: http://www.guitaretab.com/a/amon-amarth/113914.html ]
|---------------------------------------------------------------------|
|10--------------------------------10------------------------10-------|
|------11--------------------------------11-------------11--------11--|
|------------11------12---11---9---------------11---------------------|
|--9-9---9-9---9-9-9----9----9---9---9-9---9-9----9-9-9----9----9---9-|
|---------------------------------------------------------------------|


|---------------------------------------------------------------------|
|9-------------------------------9-----------------------9------------|
|-----9-------------9---11---9---------9-------------9-------9--------|
|-----------9--------------------------------9------------------------|
|-7-7---7-7---7-7-7---7----7---7---7-7---7-7---7-7-7---7---7---7------|
|---------------------------------------------------------------------|
Related for Twilight Of The Thunder God New tab
×
Twilight Of The Thunder God New