Song name
# A B C D E F G H I J K L M N O P Q R S T U V W X Y Z

Amon Amarth - No Fear For The Setting Sun tab

Drop A
2x
|------------------------------------------------------------------------------------------------|
|------------------------------------------------------------------------------------------------|
|------------------------------------------------------------------------------------------------|
|------------------------7-----------------------------------------------------------------------|
|------8-----7-----------------10------7-----8p-5--------8-----7-----------2s-3--3s-5--5s-2--2s-3|
|0--0-----0-----0--0--0-----0-------0-----0--------0--0-----0-----0--0--0--2s-3--3s-5--5s-2--2s-3|
  
2x
|-------------------------------------------------------------------------------------------------|
|-------------------------------------------------------------------------------------------------|
|-------------------------------------------------------------------------------------------------|
|------7------------------------------------------------------------------------------------------|
|------------10-----------7-----8--------8------8h-10---------------------------------------------|
|8--8-----8------8--8--8-----8-----8--8------8---------8--8--8--8--8--8--8--8--8--8--8--8--5--5--5|

Tap to rate this tab
# A B C D E F G H I J K L M N O P Q R S T U V W X Y Z