Song name
# A B C D E F G H I J K L M N O P Q R S T U V W X Y Z

Amon Amarth - Varyags Of Miklagaard tab


Here's the main idea of the riffs, they change slightly
but it shouldn't be too difficult to figure out what
changes.  Here's just the main bits.

Intro
Gtr I
-------------------------------------------------|
-------------------------------------------------|
-------------------------------------------------|
-------------------------------------------------|
---8-7-5---8-7-5--7-5-3---8-7-5---10-8-7--8-7-5--|
-0-------0--------------0-------0----------------|
 .       .              .       .


Guitar II
(played while Gtr I is playing above)
------------------------------------------------|
------------------------------------------------|
------------------------------------------------|
---7-5-7---7-5-7--7-5-3---7-5-7---8-7-5--7-5-3--|
------------------------------------------------|
-0-------0--------------0-------0---------------|
 .       .              .       .


Gtr III
(not quite sure how this works.  It sounds like there's three guitars.
Here's the third part anyways, play the part you like.)

------------------------------------------------------|
------------------------------------------------------|
---10-9-7---10-9-7--9-7-5---10-9-7---12-10-9--10-9-7--|
------------------------------------------------------|
------------------------------------------------------|
-0--------0---------------0--------0------------------|
 .        .               .        .

Verse
Gtrs I and II
(Gtr I is the A-string, Gtr II is the D-string)

---------------------------------------------------------|
---------------------------------------------------------|
---------------------------------------------------------|
-------------------------------------------8-7-5--7-5-3--|
-------------------------------------------8-7-5--7-5-3--|
-0--0-0-0--0-0-0--0-0-0--0-0-0--0-0-0--0-0---------------|
 .  . . .  . . .  . . .  . . .  . . .  . .

---------------------------------------------------------|
---------------------------------------------------------|
---------------------------------------------------------|
-------------------------------------------7-5-3--7-5-7--|
-------------------------------------------8-7-5--7-5-7--|
-3--3-3-3--3-3-3--3-3-3--3-3-3--3-3-3--3-3---------------|
 .  . . .  . . .  . . .  . . .  . . .  . .

Chorus
Gtr I
(this is the super epic riff)

--------------------------------------------------------------------------|
---------8----------6------6----------------------------------------------|
---7-------7----5-7---7-----7----5---7------7------7----------------------|
-5---------------------------------8---7------7------7-8-10---8-10---8-7--|
--------------------------------------------------------------------------|
--------------------------------------------------------------------------|


Gtr II (let these ring)
--------------------------------------------------------------------------|
--------------------------------------------------------------------------|
--------------------------------------------------------------------------|
--------------------------------------------------------------------------|
-5------------------8----------------0-----------------3------------------|
-5------------------8----------------0-----------------3------------------|

During the vocals the power chords are palm muted and tremolo picked

Interlude/Chorus End

(Both guitars do this, though there's a second harmony riff later on
that I haven't figured out yet.)

----------------------------------------------------------------------------------|
----------------------------------------------------------------------------------|
----------------------------------------------------------------------------------|
----------------------------------------------------------------------------------|
---8-7-8-5---8-7-5-7-----5-7-------5-7-5---8-7-8-----8-7-5-7-----1-3-----3-5-3-5--|
-0---------0---------7-7-----7-7-7-------8-------7-7---------3-3-----3-3----------|
Tap to rate this tab
# A B C D E F G H I J K L M N O P Q R S T U V W X Y Z