Guitaretab - guitar tabs
Song name
# A B C D E F G H I J K L M N O P Q R S T U V W X Y Z

Amon Amarth - Releasing Surturs Fire tab

Song: Releasing Surtur's Fire
Artist: Amon Amarth
Tuning: Drop B (B F# B E G# C#)

Key
. = Palm Mute
~ = Tremolo Pick

Intro
|----------------------------------|
|----------------------------------|
|----------------------------------|
|----------------------------------|
|-0-----------0-0-0-0----0---0-----|
|-0-----------0-0-0-0----0---0-----|


Verse 1
|------------------------------------------|
|------------------------------------------|
|------------------------------------------|
|------------------------------------------|
|-5~~~~~~~~7~~8~~10~~8~~7~~~~~~~3~~5~~7~~--|
|------------------------------------------|


------------------------------------------|
------------------------------------------|
------------------------------------------|
-------------------------------8~~7~~5~~--|
-5~~~~~~~~7~~8~~10~~8~~7~~~~~~------------|
------------------------------------------|

"Pre-Chorus"
|-------------------------------------------------|
|-------------------------------------------------|
|-------------------------------------------------|
|-------------------------------------------------|
|--0---0---0---0-----0-0-0---0---0---0---0---0-0--|
|--0---0---0---0-----0-0-0---0---0---0---0---0-0--|
  .   .   .   .     . . .   .   .   .   .   . .


Chorus
|------------------------------------------------------------------|
|------------------------------------------------------------------|
|------------------------------------------------------------------|
|--------------------------7---------------------------------------|
|--5-----7-----8-----5---------8---7-----7-----7-----8-----10---8--|
|----000---000---000---000---0---0---777---777---777---777----7----|
    ...   ...   ...   ...   .   .   ...   ...   ...   ...    .

[ Tab from: http://www.guitaretab.com/a/amon-amarth/177678.html ]
Verse 2
|--------------------------------------------------------------------|
|--------------------------------------------------------------------|
|--------------------------------------------------------------------|
|-7~~~~~------7~~---------10~~~~~~~9~~~--------10~~9~~0--------------|
|-------5~~~~~---5~~0~~3~~-------------7~~~~~~~---------1~~~~~6~~~~~-|
|--------------------------------------------------------------------|


After Verse 2, play the Chorus through a few times.


Pre-Solo


|----------------------------------------------------|
|----------------------------------------------------|
|----------------------------------------------------|
|----------------------------------------------------|
|-0----2----3----0--7--3--2--------3----5----3----2--|
|-0----2----3----0--7--3--2--------3----5----3----2--|

Rest of the solo is on the way, but here's most of the very end of it.

Solo

|--------------------------------------------------------|
|--------------------------------------------------------|
|---7--------7---9---10---12-10-9----12-10-9------10/12--|
|---------7----------------------------------------------|
|--------------------------------------------------------|
|--------------------------------------------------------|


---------------------------10---10---10b11--10--------10--12--13--15-13-12---15-13-12--|
-10-11---10--11--11/13-13--------------------------10----------------------------------|
-----------------------12--------------------------------------------------------------|
---------------------------------------------------------------------------------------|
---------------------------------------------------------------------------------------|
---------------------------------------------------------------------------------------|


----------------------------------------------------12---------12b13---10---|
--9b10--9b10--8---10-11--10--8-bunch o' pulloffs----------------------------|
----------------------------------------------------------------------------|
----------------------------------------------------------------------------|
----------------------------------------------------------------------------|
----------------------------------------------------------------------------|


After solo, go back and play first verse, then ending

Ending (just fades out)

|-------------------------------------|
|-------------------------------------|
|-------------------------------------|
|-------------------------------------|
|-0----------7----3-----------5----0--|
|-0----------7----3-----------5----0--|
Related for Releasing Surturs Fire tab
Advertisement will be closed in 10 seconds