Song name
# A B C D E F G H I J K L M N O P Q R S T U V W X Y Z

Amon Amarth - Guardians Of Asgaard tab

This is my first tab, but its pretty much right. I noticed nobody had the solo yet so I 
to give it a shot. If anybody wants
the rest of the song just contact me.
E-mail, hoobercraft@gmail.com

Artist- Amon Amarth
Song- Guardians of Asgaard (solo)
Album- Twilight of the Thunder God


b---------------------------------------------------------------------|
G---------------------------------------------------------------------|
D-------9-11-12~-12-12-11-9-8-9-11-----14-13-16-----------------------|
A--9-11----------------------------11~----------14h16-14-13-14-13-----|
E---------------------------------------------------------------------|
B---------------------------------------------------------------------|


b---------------------------------------------------------------------|
G-------------------------17------19---------22-21-22-21--17-16-14-16-|
D----------------------------14-13--14-13-14--------------------------|
A-14p13-14p13-14p13-14p13---------------------------------------------|
E---------------------------------------------------------------------|
B---------------------------------------------------------------------|


b---------------------------------------------------------------------|
G-14-12-14-12-10-12-10-9-10-9-7-10-9~--10~--12~--14~~-----------------|
D---------------------------------------------------------------------|
A---------------------------------------------------------------------|
E---------------------------------------------------------------------|
B---------------------------------------------------------------------|


Thats pretty much it.
Tap to rate this tab
 
# A B C D E F G H I J K L M N O P Q R S T U V W X Y Z