Guitaretab - guitar tabs
Song name
# A B C D E F G H I J K L M N O P Q R S T U V W X Y Z

Amon Amarth - Hermods Ride To Hel tab

Hermodís Ride To Hel
I recently got addicted to this song, so I thought Iíd try and tab it by ear and 
youtube covers for a little guidance, there are probably a few mistakes but I think I did it 
nonetheless, enjoy! Riff order at the bottom


Intro, listen for timing/number of times note is hit
Riff A
b---------------------------------------------------------------|
G---------------------------------------------------------------|
D-12---11----9--11---9----7---4---------------------------------|
A-10---9-----7---9----7---5---2---------------------------------|
E-10---9-----7---9----7---5---2---------------------------------|
B---------------------------------------------------------------|

Riff B (00ís are palm mutes, could not quite put the rhythm into tab form, so when you 
one, just hit as needed, theyíre there as more of a guide so you know when they come in)
b------------------------------------------------------------|
G------------------------------------------------------------|
D------------------------------------------------------------|
A-------12--11---9--11-----11---9----7-----------------------|
E-------10---9----7---9-----9----7----5----------------------|
B--00---10---9----7---9-----9----7----5----------------------|
[ Tab from: http://www.guitaretab.com/a/amon-amarth/189689.html ]
b----------------------------------------------------------------------------|
G----------------------------------------------------------------------------|
D-----------------------12-------------------------12------------------------|
A--7------9-----10-----------------5h7------9---------------------10p9-------|
E-----0-0---0-0-----0-0-----0-0-------0-0----0-0-----0-0-0-0-0----------10---|
B----------------------------------------------------------------------------|


Riff D (same story as intro with 00ís)
b--------------------------------------------------------------|
G------------7-------------------------------------------------|
D-------4h5----------------------------------------------------|
A--------------------------------------------------------------|
E--------------------------------------------------------------|
B-00-----------------------------------------------------------|


Riff E
(all tremolo picking, if two notes in a row are the same i.e. 8-8, there is a slight 
between them, listen for timing)
b-----------------------------------------------------------------------|
G-----------------------------------------------------------------------|
D---------------5--7--8--8--7----5--5----5---7--------------------------|
A--5---7---8-------------------8--------8-------------------------------|
E-----------------------------------------------------------------------|
B-----------------------------------------------------------------------|

Outro (all on low B string, all palm mutes)
B-0-0-0-0---0-0-0---0-0--------------

Riff order
Riff A x10
Riff B x4
Alternate between Riff C and Riff D x4
Riff A x4
Alternate between Riff C and Riff D x2
Riff E x4
Riff B x4
Outro x1
\m/-_-\m/
Related for Hermods Ride To Hel tab