Song name
# A B C D E F G H I J K L M N O P Q R S T U V W X Y Z

Amon Amarth - Where Silent Gods Stand Guard tab

--------------------------------------------------------------------------------------------------
                       Where Silent Gods Stand Guard by Amon Amarth
--------------------------------------------------------------------------------------------------

Tabbed by th_brck_rcks
Tuning: Drop B (B-F#-B-E-G#-C#)

|--------------------------|
|--------------------------|
|--------------------------|
|-6---4-6--4---------------|
|----------------6-----6---|
|--------------4-----4-----|-_
|                          | _-X4
|--------------------------|-
|--------------------------|
|----------4---------------|
|-2--------4--6-----6------|
|-2--------2--6-----6------|
|-0-----------4-----4------|


(with the top first riff)
|-------------------------------|
|-------------------------------|-_
|-------------------------------| _-X4
|-------------------------------|-
|-00-0---00-0---2--44-4---44-4--|
|-00-0---00-0---2--44-4---44-4--|

X3
|-----------------|-----------------|
|-----------------|-----------------|
|-----------------|-----------------|
|---0---0---0---0-|---2---4---4---4-|-_
|---0---0---0---0-|---2---4---4---4-| _-X2
|-000-000-000-000-|-222-444-444-444-|-
| ++  ++  ++  ++    ++  ++  ++  ++  |

|-------------------------------|
|-------------------------------|-_
|-------------------------------| _-X4
|-------------------------------|-
|-00-0---00-0---2--44-4---44-4--|
|-00-0---00-0---2--44-4---44-4--|

X3
|-----------------|-----------------|
|-----------------|-----------------|
|-----------------|-----------------|
|---0---0---0---0-|---2---4---4---4-|-_
|---0---0---0---0-|---2---4---4---4-| _-X2
|-000-000-000-000-|-222-444-444-444-|-
| ++  ++  ++  ++    ++  ++  ++  ++  |

|-------------------|
|-------------------|
|-------------------|-_
|-6--4-6---9-7-6--4-| _-X4
|-------------------|-
|-------------------|
| _  _ _   _ _ _  _ |

|------------------------------------------------------------------|
|------------------------------------------------------------------|
|------------------------------------------------------------------|
|-2-4---4-5---2-4------------------2-4---4-5---2-4-----------------|
|-----2-----2------2-2-2-2-0-0-0-0---------------------------------|
|--------------------------------------0-----0-----0-0-0-0-0-0-0-0-|
|     +     +      + + + + + + + +     +     +     + + + + + + + + |

|---------------------------------------|
|---------------------------------------|
|---------2---2-4------------4---4-6----|
|-4-5-2-4---4-----2-6-7-4-6---6-----4--|
|---------------------------------------|
|---------------------------------------|
|                 _                  _  |

|------------------------------|
|------------------------------|
|-8-8--8-8-8-8-8-8-8-8-8-8-8-8-|-_
|-6-6--6-6-6-6-6-6-6-6-6-6-6-6-| _-X2
|------------------------------|-
|------------------------------|
|      + + + + + + + + + + + + |


|------------------------------|------------------------------|
|------------------------------|------------------------------|
|------------------------------|------------------------------|
|------6-9-8-9-6-8-9-8h9p8p6---|------6-7--4-6----------------|
|------------------------------|------------------------------|
|------------------------------|------------------------------|
|                              |                              |
|X2                            |X2                            |
|------------------------------|------------------------------|
|------------------------------|------------------------------|
|------------------------------|------------------------------|
|------------------------------|------------------------------|
|-4-4--4-4-4-4-4-4-4-4-4-4-4-4-|-0-0--0-0-0-0-0-0-0-0-0-0-0-0-|
|-4-4--4-4-4-4-4-4-4-4-4-4-4-4-|-0-0--0-0-0-0-0-0-0-0-0-0-0-0-|
|      + + + + + + + + + + + + |      + + + + + + + + + + + + |

Solo
|-10-10-10-10----------10-10-10-10------------------------------------|
|-------------------------------------11-13--------11-----------------|
|-------------11-11-11-------------12--------9-11-----9-11----11-12-9-|
|---------------------------------------------------------------------|
|---------------------------------------------------------------------|
|---------------------------------------------------------------------|

----------------------------------------------------------------10-13-|
----9----911----11-13-13-13----11-13--------11----13-13-----11-------|
-11---11------11-----------------------11-13----11--------------------|
----------------------------------------------------------------------|
----------------------------------------------------------------------|
----------------------------------------------------------------------|

----------------------------------------------------------------------14-15--12-14--|
-9-11----11-13------11---------14/16-14-16----12-14-14-14---14-15-11-----------------|
---------------9-11----9-11-11-------------14----------------------------------------|
-------------------------------------------------------------------------------------|
-------------------------------------------------------------------------------------|
-------------------------------------------------------------------------------------|

Rhythm for Solo
|-------------------------------------------------------------------------|
|-------------------------------------------------------------------------|
|-------------------------------------------------------------------------|
|-------------------------------------------4-4-4-4-4-4-4-4-6-6-6-6-6-6-6-|
|-2-2-2-2-2-2-2-2-2-2-4-4-4-4-4-4-4-4-4-4-4-2-2-2-2-2-2-2-2-4-4-4-4-4-4-4-|
|-2-2-2-2-2-2-2-2-2-2-4-4-4-4-4-4-4-4-4-4-4-------------------------------|

Part for the Re-Intro
|-----12-14---/1716-14h16p14-----12-14---12-14---/1716-14h16p14-----|
|---------------------------------------------------------------------|
|---------------------------------------------------------------------|
|---------------------------------------------------------------------|
|---------------------------------------------------------------------|
|---------------------------------------------------------------------|

Continue the riffs above as u hear them
Im sorry im so lazy with how i put these tabs but i can barely help it

Legend:
Palm Mute-+
Slide Up-/
Hammer On-h
Pull Off-p
Tremelo Picking-_
Tap to rate this tab
# A B C D E F G H I J K L M N O P Q R S T U V W X Y Z