Song name
# A B C D E F G H I J K L M N O P Q R S T U V W X Y Z

Amon Amarth - Guardians Of Asgaard tab

-----------------------------------------------------------------------------
			     Guardians of Asgaard - Amon Amarth
-----------------------------------------------------------------------------
Tabbed by AmonAmarth

I thought that I would tab this out, since the original seems off. Original
credits go to DkAAmetalhead.

Tuning: Drop A

B||--------------------------------------------------------------------------|
Gb|------------------T-------------------------15-14-17----------------------|
D||-------14h16b18~-19p16r14~-13-14-16------------------14h16-14-13-14-------|
A||-14h16------------------------------14/16~--------------------------------|
E||--------------------------------------------------------------------------|
A||--------------------------------------------------------------------------|

B||--------------------------------------------/17-------19~-----------------|
Gb|------------------------------------------------15-14-----15-14-15--------|
D||-13h14p13h14p13h14p13h14p13h14p13h14p13h14--------------------------------|
A||--------------------------------------------------------------------------|
E||--------------------------------------------------------------------------|
A||--------------------------------------------------------------------------|

B||-22-21-22-21~---17-16-14-16-14-12-14-12-10-12-10-9-7-10-9~-10~-12~--14~---|
Gb|--------------------------------------------------------------------------|
D||--------------------------------------------------------------------------|
A||--------------------------------------------------------------------------|
E||--------------------------------------------------------------------------|
A||--------------------------------------------------------------------------|

************************************

| /   slide up
| \   slide down
| h   hammer-on
| p   pull-off
| ~   vibrato
| +   harmonic
| x   Mute note
| b   Bend
| pb  Pre-bend
| br  Bend release
| pbr Pre-bend release
| brb Bend release bend

************************************
Tap to rate this tab
# A B C D E F G H I J K L M N O P Q R S T U V W X Y Z