Song name
# A B C D E F G H I J K L M N O P Q R S T U V W X Y Z

Amon Amarth - Death In Fire tab

Death in Fire
Amon Amarth
Versus the World
Tuning: B standard (BEADF#B)

As my good friends on the opposite side of the world would say, this tab
same-same but different. The other tabs up are pretty good, but I’ve 
fixed a few obvious mistakes and figured out things like the backing to 
the interlude, which I haven’t seen elsewhere. 

This tab is slightly harder to play than the rest, but, in my opinion,
much more accurate. Let me know what you think. 

Lead Guitar (Rhythm is at the bottom):

Intro

|----------------------------------------------------------------|
|----------------------------------------------------------------|
|----------------------------------------------------------------|
|-2~~~~~~~~~~~~~~~~~~~~~~~~~~~~~~~~~~~~~~~~~~~~~~~~~~~~~-9-10--7-|
|-2~~~~~~~~~~~~~~~~~~~~~~~~~~~~~~~~~~~~~~~~~~~~~~~~~~~~~-9-10--7-|
|-0~~~~~~~~~~~~~~~~~~~~~~~~~~~~~~~~~~~~~~~~~~~~~~~~~~~~~-7-8---5-|

Main Riff x4 - Face It Without Fear!

Contrary to popular belief, the opens are NOT palm muted, just staccato  
(stopped before you hit the next note). Listen closely, you’ll hear it. 

|------------------------------------------|
|------------------------------------------|
|------------------------------------------|
|---7799--7799--12121010--1010--991010--77-|
|------------------------------------------|
|-0-----0-----0---------0-----0-------0----| x2
(Twelves and tens, not ones, zeros and twos)

|-------------------------------------------------------------------|
|-------------------------------------------------------------------|
|-------------------------------------------------------------------|
|---7-9---7-9---7---7-9---7-9---7--9#~~~~~~~~~~~~~~10#~~~~~-2-5-5-5-|
|-0-----0-----0---0-----0-----0-----------------------------2-5-5-5-|
|-----------------------------------------------------------0-3-3-3-|

Breakdown x4

|----------------------------------|
|----------------------------------|
|----------------------------------|
|--------------------------9-10--7-|
|--------------------------9-10--7-|
|-000000000000000000000000-7-8---5-|
pm************************	

Main Riff x2

Interlude x7 - The end is coming soon…

|-----------------------------------------------------------------|
|-----------------------------------------------------------------|
|-9t2-9t2-9t2-9t2-9t2-9t2-9t2-9t2-9t2-7t2-7t2-7t2-7t2h4p2h4p2h4p2-|
|-----------------------------------------------------------------|
|-----------------------------------------------------------------|
|-----------------------------------------------------------------|

|-----------------------------------------------------------------|
|-6t1-6t1-6t1-6t1-6t1-6t1-6t1-6t1-6t1-6t1-6t1-6t1-6t1-8t1-8t1-8t1-|
|-----------------------------------------------------------------|
|-----------------------------------------------------------------|
|-----------------------------------------------------------------|
|-----------------------------------------------------------------|

Bridge x4 - The Day is Here 

|----------------------------------------------------------------|
|----------------------------------------------------------------|
|-/9#~~~~~~~~~7#------------------------------7#-----------------|
|---------------10#~~~~~~~9#~~10#~~~~~~~~~~~~~--10#~~~~~9#~~7#~~-|
|----------------------------------------------------------------|
|----------------------------------------------------------------|

|----------------------------------------------------------------|
|----------------------------------------------------------------|
|-7#~~~~~~~~--------------------------------------------7#~~~~~~-|
|-----------10#9#~~~~~~~~~~~~~~~~~~~~~~~~~~~~~~~~~~~~~~~---------|
|----------------------------------------------------------------|
|----------------------------------------------------------------|

[Optional - I get bored holding that 9 for so long, so I do this]

[----------------------------------------------------------------]
[----------------------------------------------------------------]
[-7#~~~~~~~~-------------------7#~~~~-------------------7#~~9#~~-]
[-----------10#9#~~~~~~~~~~~~~~------9#~~~~10#~~~~9#~~~~---------]
[----------------------------------------------------------------]
[----------------------------------------------------------------]

Re-Intro:

|----------------------------------------------------------------|
|----------------------------------------------------------------|
|----------------------------------------------------------------|
|-2~~~~~~~~~~~~~~~~~~~~~~~~~~~~~~~~~~~~~~~~~~~~~~~~~~~~~-9-10--7-|
|-2~~~~~~~~~~~~~~~~~~~~~~~~~~~~~~~~~~~~~~~~~~~~~~~~~~~~~-9-10--7-|
|-0~~~~~~~~~~~~~~~~~~~~~~~~~~~~~~~~~~~~~~~~~~~~~~~~~~~~~-7-8---5-|

Solo:

|---------------------------------------------------------------|
|-------------------------------------0~~~~~~~~~~~~~~~~~~~~~----|
|-/9~~~~~~~7/9\7--------------7~------x-------------------------|
|----------------10-9~~~-9-10----10-9-9~~~~~~~9-10~~-10-9~~~-7\-|
|---------------------------------------------------------------|
|---------------------------------------------------------------|

|------------------------------------------------------------------------------------------|
|-----------10b11~-----------10b11~-12h13p12------------------10b11~----10-12-12-12h13-12-|
|-12---12---------------12-------------------12b13~-12---12----------12--------------------|
|----9----9--------9-12----9---------------------------9----9------------------------------|
|------------------------------------------------------------------------------------------|
|------------------------------------------------------------------------------------------|

|-------------------------------------------------------------------------------------|
|-17~~~~~~-15h17p15----------------15~~---------19~~~~~~~~~~~~~-19-20~~-20-19~~------|
|-------------------17-16~~-16-17-------16-17~~---------------------------------20\16-|
|-------------------------------------------------------------------------------------|
|-------------------------------------------------------------------------------------|
|-------------------------------------------------------------------------------------|

|----------15-19-15-14-------------15-19-15-14----17----17-20----20-19----17----17-20-19\-|
|-17----17----------------17----17-------------------17-------17-------17----17-------------|
|----16----------------16----16----------------16-------------------------------------------|
|-------------------------------------------------------------------------------------------|
|-------------------------------------------------------------------------------------------|
|-------------------------------------------------------------------------------------------|

Main Riff x2, but the last time end with this:

|----------------------------------12----12----12----12----15----15----15---\-|
|----------------------------------15b17-15b17-15b17-15b17-18b20-18b20-18b20\-|
|-----------------------------------------------------------------------------|
|-9#~~~~~~~~~~~~~~10#~~~~~~~~~~~~~--------------------------------------------|
|-----------------------------------------------------------------------------|
|-----------------------------------------------------------------------------|

Only Death Remains


Rhythm:

Intro 

|----------------------------------------------------------------|
|----------------------------------------------------------------|
|----------------------------------------------------------------|
|-2~~~~~~~~~~~~~~~~~~~~~~~~~~~~~~~~~~~~~~~~~~~~~~~~~~~~~-9-10--7-|
|-2~~~~~~~~~~~~~~~~~~~~~~~~~~~~~~~~~~~~~~~~~~~~~~~~~~~~~-9-10--7-|
|-0~~~~~~~~~~~~~~~~~~~~~~~~~~~~~~~~~~~~~~~~~~~~~~~~~~~~~-7-8---5-|

Verse x4 - Death in Fire

|-----------------------------------------------------------------|
|-----------------------------------------------------------------|
|-----------------------------------------------------------------|
|-2#~~~~~~~~~~~~~~~~~~~~~~~~~~~~~~~~~~~~~~~~~~~~~~~~~~~~~~~~~~~~~-|
|-2#~~~~~~~~~~~~~~~~~~~~~~~~~~~~~~~~~~~~~~~~~~~~~~~~~~~~~~~~~~~~~-|
|-0#~~~~~~~~~~~~~~~~~~~~~~~~~~~~~~~~~~~~~~~~~~~~~~~~~~~~~~~~~~~~~-|

|-----------------------------------------------------------------|
|-----------------------------------------------------------------|
|-----------------------------------------------------------------|
|-7-7-7-7-7-7-7-7-7-7-7-7-7-7-7-7-5-5-5-5-5-5-5-5-3-3-3-3-2-5-5-5-|
|-7-7-7-7-7-7-7-7-7-7-7-7-7-7-7-7-5-5-5-5-5-5-5-5-3-3-3-3-2-5-5-5-|
|-5-5-5-5-5-5-5-5-5-5-5-5-5-5-5-5-3-3-3-3-3-3-3-3-1-1-1-1-0-3-3-3-|

Breakdown x4

|----------------------------------|
|----------------------------------|
|----------------------------------|
|--------------------------9-10--7-|
|--------------------------9-10--7-|
|-000000000000000000000000-7-8---5-|
pm************************	

Verse x2

Interlude - Lead tapping once by itself, then come in with: 

|-----------------------------------------------------------------|
|-----------------------------------------------------------------|
|-----------------------------------------------------------------|
|-7-7---7---------7-7---7---------3-3---3---------3-3---3---------|
|-7-7---7---------7-7---7---------3-3---3---------3-3---3---------|
|-5-5---5---------5-5---5---------1-1---1---------1-1---1---------| x2

|-----------------------------------------------------------------|
|-----------------------------------------------------------------|
|-----------------------------------------------------------------|
|-7-7---7---7---7-7-7---7---7---7-3-3---3---3---3-3-3---3---3---3-|
|-7-7---7---7---7-7-7---7---7---7-3-3---3---3---3-3-3---3---3---3-|
|-5-5---5---5---5-5-5---5---5---5-1-1---1---1---1-1-1---1---1---1-| x4

Bridge x4

|----------------------------------------------------------------|
|----------------------------------------------------------------|
|----------------------------------------------------------------|
|-7#~~~~~~~~~~~~~~~~~~~~~~~~~~~~~~3#~~~~~~~~~~~~~~~~~~~~~~~~~~~~-|
|-x#~~~~~~~~~~~~~~~~~~~~~~~~~~~~~~x#~~~~~~~~~~~~~~~~~~~~~~~~~~~~-|
|-5#~~~~~~~~~~~~~~~~~~~~~~~~~~~~~~1#~~~~~~~~~~~~~~~~~~~~~~~~~~~~-|

|----------------------------------------------------------------|
|----------------------------------------------------------------|
|----------------------------------------------------------------|
|-9#~~~~~~~~~~~~~~~~~~~~~~~~~~~~~~2#~~~~~~~~~~~~~~~~~~~~~~~~~~~~-|
|-x#~~~~~~~~~~~~~~~~~~~~~~~~~~~~~~0#~~~~~~~~~~~~~~~~~~~~~~~~~~~~-|
|-7#~~~~~~~~~~~~~~~~~~~~~~~~~~~~~~-------------------------------|

The last time through, end like this: 

|----------------------------------------------------------------|
|----------------------------------------------------------------|
|----------------------------------------------------------------|
|-9#~~~~~~~~~~~~~~~~~~~~~~~~~~~~~~2#~~~~~~~~~~~~~~~~~~~~10#~~~~~-|
|-x#~~~~~~~~~~~~~~~~~~~~~~~~~~~~~~0#~~~~~~~~~~~~~~~~~~~~x#~~~~~~-|
|-7#~~~~~~~~~~~~~~~~~~~~~~~~~~~~~~----------------------8#~~~~~~-|

Re-intro:

|----------------------------------------------------------------|
|----------------------------------------------------------------|
|----------------------------------------------------------------|
|-2~~~~~~~~~~~~~~~~~~~~~~~~~~~~~~~~~~~~~~~~~~~~~~~~~~~~~-9-10--7-|
|-2~~~~~~~~~~~~~~~~~~~~~~~~~~~~~~~~~~~~~~~~~~~~~~~~~~~~~-9-10--7-|
|-0~~~~~~~~~~~~~~~~~~~~~~~~~~~~~~~~~~~~~~~~~~~~~~~~~~~~~-7-8---5-|

Solo Backing - When Everyone Is Dead

|------------------------------------------------------------------|
|------------------------------------------------------------------|
|------------------------------------------------------------------|
|------------------------------------------------------------------|
|---------------2#3#~~~~~~5#~~~~~~3#~~~~~~~~~~~~~~~~~~~~~~2#~~~~~~-|
|-0#~~~~~~~~~~~~---------------------------------------------------| x3

|------------------------------------------------------------------|
|------------------------------------------------------------------|
|------------------------------------------------------------------|
|----------------------------------------------------------9-10--7-|
|---------------2#3#~~~~~~5#~~~~~~3#~~~~~~~~~~~~~~~~~~~~~~-9-10--7-|
|-0#~~~~~~~~~~~~-------------------------------------------7-8---5-|

Main Riff x2

End the last time with this: 

|-----------------------------------------------------------------|
|-----------------------------------------------------------------|
|-----------------------------------------------------------------|
|-7-7-7-7-7-7-7-7-7-7-7-7-7-7-7-7-2-2-2-2-2-2-2-2-3-3-3-3-3-3-3-3-|
|-7-7-7-7-7-7-7-7-7-7-7-7-7-7-7-7-2-2-2-2-2-2-2-2-3-3-3-3-3-3-3-3-|
|-5-5-5-5-5-5-5-5-5-5-5-5-5-5-5-5-0-0-0-0-0-0-0-0-1-1-1-1-1-1-1-1-|

|-----------------------------------------------------------------|
|-----------------------------------------------------------------|
|-----------------------------------------------------------------|
|-7-7-7-7-7-7-7-7-3-3-3-3-9-10--7-2-------------------------------|
|-7-7-7-7-7-7-7-7-3-3-3-3-9-10--7-2-------------------------------|
|-5-5-5-5-5-5-5-5-1-1-1-1-7-8---5-0-------------------------------|

Tab Legend:

~~~~~~~~ = Hold note

#~~~~~~~ = Tremolo note 

Pm *     = Palm mute

8t1      = Tap the first number while holding the second

2h4      = Hammeron

4p2      = Pulloff 

/        = Slide up to

\        = Slide down from

10b11    = Bend the first fret until it sounds like the second
Tap to rate this tab
# A B C D E F G H I J K L M N O P Q R S T U V W X Y Z