Song name
# A B C D E F G H I J K L M N O P Q R S T U V W X Y Z

Amon Amarth - Slaves Of Fear tab

I have not tabbed out a ton of songs so sorry in advance for any mistakes.
This includes the main parts excluding the end of the song. I will try to figure 
that out later and get it up.
I only tabbed out the main guitar for the time being.
Just thought it would be nice to have something up for this song.

Baritone Tuning used by Amon Amarth for most songs.
The tuning is B,E,A,D,F(SHARP),B.
The sharp symbol isn't on the bars below because it threw the tabs alignment off 
when previewing it.
So the F below is really F-sharp.

Part 1:
B |---------------------------------------------------------------------|
F |---------------------------------------------------------------------|
D |---------------------------------------------------------------------|
A |-9-------9-------9-------9-------12-----12-----11-----9-----9---9-9--|
E |---------------------------------------------------------------------|
B |---7-7-7---7-7-7---7-7-7---7-7-7----7-7----7-7----7-7---7-7---7------|

Part 2 right after part 1:
I didn't count the number of notes but it is pretty easy to hear for this part
B |---------------------------------------------------------------------|
F |---------------------------------------------------------------------|
D |---------------------------------------------------------------------|
A |-9-7777777777777777-9-9-9-10-10-10-7777777777777777------------------|
E |---------------------------------------------------------------------|
B |---------------------------------------------------------------------|

Part 3: (Played tremolo so I just listed the notes played)
B |-------------------------------------------------------------------------|
F |-------------------------------------------------------------------------|
D |-------------------------------------------------------------------------|
A |----9//----9//-11//---12//---11//-12//---10//---9//-10//---7//---5//-7//-|
E |-------------------------------------------------------------------------|
B |-7//----7//--------7//----7//---------0//----0//--------0//---0//--------|

Part 4:(I think I counted these right but if not sorry)
B |---------------------------------------------------------------------|
F |-------------8-8-7-7-7-7-7-7-7-7-------------8-8-7-7-7-7-------------|
D |-7-7-7-6-6-6---------------------7-7-7-6-6-6-------------7-7-7-7-----|
A |---------------------------------------------------------------------|
E |---------------------------------------------------------------------|
B |---------------------------------------------------------------------|

B |---------------------------------------------------------------------|
F |--5-(x16)------------------------------------------------------------|
D |----------6-(x16)----------------------------------------------------|
A |---------------------------------------------------------------------|
E |---------------------------------------------------------------------|
B |---------------------------------------------------------------------|

Hope that is close enough for now. Enjoy and send me a message if you have any 
questions or comments.
Tap to rate this tab
 
# A B C D E F G H I J K L M N O P Q R S T U V W X Y Z