Song name
# A B C D E F G H I J K L M N O P Q R S T U V W X Y Z

Amon Amarth - The Hero tab

A E A D F# B

INTRO
Guitar I, II
|---------------|
|---------------|
|---------------|
|-------3-2-----|
|-3-2-0-1-0-3-0-|
|-3-2-0-----3-0-|

Guitar I
|---------------------------------|
|-----6-----5-----8-----5-----6---|
|-------------------------------7-| X3
|---7-----7-----7-----7-----7-----|
|-5-----5-----5-----5-----5-------|
|---------------------------------|

|-----------------------6-5------|
|-----6-----5-----6-5--------6-7-|
|---------------------7----------|
|---7-----7-----7----------------|
|-5-----5-----5------------------|
|--------------------------------|
|
|
|Guitar II
|-------------------------------|
|-------------------------------|
|-------------------------------|
|-------------------------------|
|-----------------3-2-0-1-0-3-0-|
|-----------------3-2-0-----1-0-|

VERSE
Guitar I
|---------------------------------------------------------------------|
|---------------------------------------------------------------------|
|---------------------------------------------------------------------|
|---------------------------------------------------------------------|
|---------------------------------------------------------------------|
|-0-0-0-0-0-0-0-0-0-0-0-0-0-0-0-0-5-5-5-5-5-5-5-5-5-5-5-5-5-5-5-5-5-5-|
| . . . . . . . . . . . . . . . . . . . . . . . . . . . . . . . . . . 
|
|Guitar II
|---------------------------------------------------------------------|
|---------------------------------------------------------------------|
|---------------------------------------------------5-----------------|
|-------8---7-------5---7---8-7---5-------8-7-----------8---7-8---5---|
|---------------------------------------------------------------------|
|-0-0-0---0---0-0-0---0---0-----0---5-5-5-----5-5-5---5---5-----5---5-|
  . . .   .   . . .   .   .     .   . . .     . . .   .   .     .   .
|----------------------------------------------------------------------|
|----------------------------------------------------------------------|
|----------------------------------------------------------------------|
|----------------------------------------------------------------------|
|----------------------------------------------------------------------|
|-8-8-8-8-8-8-8-8-8-8-8-8-8-8-8-8-8-7-7-7-7-7-7-7-7-7-7-7-7-7-7-7-7-7-7|
| . . . . . . . . . . . . . . . . . . . . . . . . . . . . . . . . . . .
|
|
|----------------------------------------------------------------------|
|----------------------------------------------------------------------|
|------------------------------------------------------8---8-----10-10-|
|-------10---8-------7---8---7-8---7-------8---7-------8---8---7-10-10-|
|------------------------------------0-0-0---0---0-0-0---0-------------|
|-8-8-8----8---8-8-8---8---8-----8---------------------------0---------|
  . . .    .   . . .   .   .     .   . . .   .   . . .   .   .
CHORUS x2
Guitar I
|--------------------------------------------------------------------------|
|--------------------------------------------------------------------------|
|--------------------------------------------------------------------------|
|--------------------------------------------------------------------------|
|-0-0-0-0-0-0-0-0-0-0-0-0-0-0-0-0-0----------------------------------------|
|-----------------------------------0-0-0-0-0-0-0-0-0-0-0-0-0-0-0-0-0-0-0-0|
|. . . . . . . . . . . . . . . . . . . . . . . . . . . . . . . . . . . . . 
|
|Guitar II
|--------------------------------------------------------------------------|
|--------------------------------------------------------------------------|
|-------7-7-7-10-10-10-7-7-7-------7-7-7-10-10-10-9-7--7-7-7-7-7-7-7-7-7-7-|
|-0-0-0----------------------0-0-0-----------------------------------------|
|--------------------------------------------------------------------------|
|--------------------------------------------------------------------------|

|--------------------------------------------------------------------------|
|--------------------------------------------------------------------------|
|--------------------------------------------------------------------------|
|--------------------------------------------------------------------------|
|--------------------------------------------------------------------------|
|-0-0-0-0-0-0-0-0-0-0-0-0-0-0-0-0-0-0-0-0-0-0-7-7-7-7-7-7-7-7-7-7-7-7-7-7-7|
|. . . . . . . . . . . . . . . . . . . . . . . . . . . . . . . . . . . . . 
|
|
|-------------------------------------------------------------------------|
|-------------------------------------------------------------------------|
|----------------------------------------------------------9-9-9----------|
|-10-10-10-10-10-10-10----------------------7-7-7-10-10-10-------10-10-10-|
|----------------------10-10-10-10-10-10-10-------------------------------|
|-------------------------------------------------------------------------|

|----------------------------------------------------------------------------------|
|----------------------------------------------------------------------------------|
|----------------------------------------------------------------------------------|
|----------------------------------------------------------------------------------|
|----------------------------------------------------------------------------------|
|-7-7-7-7-7-7-7-7-7-7-7-7-7-7-8-8-8-8-8-8-8-8-8-8-8-8-3-3-3-3-3-3-3-3-3-3-3-3-3-3--|
|. . . . . . . . . . . . . . . . . . . . . . . . . . . . . . . . . . . . . . . . . .
|
|
|----------------------------------------------------------------------------------|
|----------------------------------------------------------------------------------|
|----------------9-9-9-7-----------------------------------------------------------|
|-7-7-7-10-10-10---------10-10-10-10-10-10-10-10-10--------------------------------|
|---------------------------------------------------10-10-10-10-10-10-10-10-10-10--|
|----------------------------------------------------------------------------------|

Outro
Same of intro, with a little variation.
|---------------------------------|
|-----6-----6-----5-----8-----6-5-|
|---7-----7-----7-----7-----7-----|
|-5-----5-----5-----5-----5-------|
|---------------------------------|
|---------------------------------|

|-----------------5-----6----------|
|---5-8---5-8---5-----5-----5-6--5-|
|-5-----5-----5-----5-----5--------|
|----------------------------------|
|----------------------------------|
|----------------------------------|

Chords of rythmic part are 0 5 7 8 3
                           0 5 7 8 3
Tap to rate this tab
# A B C D E F G H I J K L M N O P Q R S T U V W X Y Z