Guitaretab - guitar tabs
Song name
# A B C D E F G H I J K L M N O P Q R S T U V W X Y Z

Amon Amarth - Arson tab

----------- Arson ---------------
	 Amon Amarth

Version: Solo Only
Artist - Amon Amarth
Album - The Fate of Norns
Tabbed by - Scott Benedict

Tuning - B E A D F# B

I chose to just do the solo because I love this solo, and the rest of the song
is easy enough for you to learn yourself.

-|------------------------------------------------------------------------|
-|-------------------------------------------------------------7-9-9-7-7--|
-|-8-6-5-4---6-------6-5-4-5---6-6-6-6-6-7---7-7h9-9-7-7-5h7h9------------|
-|-------------6---6------------------------------------------------------|
-|------------------------------------------------------------------------|
-|------------------------------------------------------------------------|

-|------------------------------------------2h4-2-7--9-7--7-7--4-6--7h9-9-9-9---|
-|-5-4---4-6-5---3h5-5-5---3---3-3-2--------------------------------------------|
-|-----------------------------------4-0--4-------------------------------------|
-|------------------------------------------------------------------------------|
-|------------------------------------------------------------------------------|
-|------------------------------------------------------------------------------|
[ Tab from: http://www.guitaretab.com/a/amon-amarth/57845.html ]
-|-9h11-12\11-11\9-9\7--4--9-4--2-0---------------7-5-3-0--4~-------------------|
-|-----------------------------------1h3-3-3-3~---------------------------------|
-|------------------------------------------------------------4h6p4----4h6h8p6--|
-|------------------------------------------------------------------------------|
-|------------------------------------------------------------------------------|
-|------------------------------------------------------------------------------|

-|----------------3h5--7-5~-4-5-4--4-2-------2--4--5--7-7-6-4--2h4--11--11-12---|
-|------------3h5---------------------------------------------------------------|
-|-6h8----4h6--------------------------4--3-------------------------------------|
-|------------------------------------------------------------------------------|
-|------------------------------------------------------------------------------|
-|------------------------------------------------------------------------------|

-|-14-14-14-16h18-18-16-16-14-12-1111h12p11--7p5-5h7-7--7h9-11-4p2-4-4-4-2-----|
-|------------------------------------------------------------------------------|
-|--------------------------------------------------------------------------4---|
-|------------------------------------------------------------------------------|
-|------------------------------------------------------------------------------|
-|------------------------------------------------------------------------------|
Related for Arson tab