Song name
# A B C D E F G H I J K L M N O P Q R S T U V W X Y Z

Amon Amarth - Where Death Seems To Dwell tab

#----------------------------------PLEASE NOTE---------------------------------#
#This file is the author's own work and represents their interpretation of the #
#song. You may only use this file for private study, scholarship, or research. #
#------------------------------------------------------------------------------#

WHERE DEATH SEEMS TO DWELL
As recorded by Amon Amarth
(From the 2004 Album FATE OF THE NORNS)

Transcribed by trentin64
	

Words and Music by Amon Amarth

Gtr I (B E A D F# B) - 'Untitled'
Gtr II (B E A D F# B) - 'Untitled'

   Intro
    Q=70
    E5
   4/4
    Gtr I
    E E S E S E S E S E   E E S E S E S E S E
||----------------------|---------------------|
||o---------------7-----|---------------7-----|
||----9---9---7-------7-|---9---9---7-------7-|
||----------------------|---------------------|
||o-7---7---7---7---7---|-7---7---7---7---7---|
||----------------------|---------------------|
|
|   Gtr II
|   W                     W
||----------------------|---------------------|
||o---------------------|---------------------|
||----------------------|---------------------|
||----------------------|---------------------|
||o-2-------------------|-2-------------------|
||--0-------------------|-0-------------------|


  F#5
  E  E S  E S  E S  E S  E   E  E S  E S  E S  E S  E
|--------------------------|---------------------------|
|--------------------------|---------------------------|
|--------------------------|---------------------------|
|---12---12---11---11---11-|---12---12---11---11---11--|
|-9----9----9----9----9----|-9----9----9----9----9-----|
|--------------------------|---------------------------|
|
| W                          W
|--------------------------|---------------------------|
|--------------------------|---------------------------|
|--------------------------|---------------------------|
|--------------------------|---------------------------|
|-4------------------------|-4-------------------------|
|-2------------------------|-2-------------------------|


  C5                    C5
  E E S E S E S E S E   E E S E S E S E S E
|---------------------|---------------------|
|---------------------|---------------------|
|---9---9---7---7---7-|---9---9---7---7---7-|
|---------------------|---------------------|
|---------------------|---------------------|
|-8---8---8---8---8---|-8---8---8---8---8---|
|
| W                     W
|---------------------|---------------------|
|---------------------|---------------------|
|---------------------|---------------------|
|-5-------------------|-5-------------------|
|-3-------------------|-3-------------------|
|---------------------|---------------------|


  B5                A5      B5        N.C.
  E E S E S  E  S E   S E   E E S E S E S E   S E     4x
|-------------------------|---------------------------||
|-------------------------|--------------------------o||
|---9---9----7----7-----7-|---9---9---7---7-----7-----||
|-------------------------|---------------------------||
|-------------------------|--------------------------o||
|-7---7---7-----7-----7---|-7---7---7---7-----7-------||
|
| H         +Q      Q       H         Q     E   S S   4x
|-------------------------|---------------------------||
|-------------------------|--------------------------o||
|-------------------------|---------------------------||
|-4---------(4)-----------|-4---------5-----5---4-5---||
|-2---------(2)-----7-----|-2------------------------o||
|-------------------5-----|---------------------------||


   Verse
    C5                            B5
    TP   TP TPTP   TP    TP TPTP  TP   TP TPTP   TP    TP TP
    H    Q  E E    H     Q  E E   H    Q  E E    H     Q  Q    4x
||--------------|---------------|-------------|----------------||
||o-------------|---------------|-------------|---------------o||
||------------2-|--------5--4---|-4----2------|-----------2----||
||--2----4--5---|--2----------4-|---------5-4-|--4-----5-------||
||o-------------|---------------|-------------|---------------o||
||--------------|---------------|-------------|----------------||
|
|   W             +W              W             +W             4x
||--------------|---------------|-------------|----------------||
||o-------------|---------------|-------------|---------------o||
||--------------|---------------|-------------|----------------||
||--5-----------|-(5)-----------|-4-----------|-(4)------------||
||o-3-----------|-(3)-----------|-2-----------|-(2)-----------o||
||--------------|---------------|-------------|----------------||


   Verse
    E5   F#5      G5   C5       B5
    TP   TP TPTP  TP   TP TPTP  TP   TP TPTP   TP    TP TP
    H    Q  E E   H    Q  E E   H    Q  E E    H     Q  Q
||--------------|-------------|-------------|----------------||
||o-------------|-------------|-------------|---------------o||
||------------2-|------5--4---|-4----2------|-----------2----||
||--2----4--5---|-2---------4-|---------5-4-|--4-----5-------||
||o-------------|-------------|-------------|---------------o||
||--------------|-------------|-------------|----------------||
|
|   H    H        H    H        W             +W
||--------------|-------------|-------------|----------------||
||o-------------|-------------|-------------|---------------o||
||--------------|-------------|-------------|----------------||
||--------------|------5------|-4-----------|-(4)------------||
||o-2----4------|-5----3------|-2-----------|-(2)-----------o||
||--0----2------|-3-----------|-------------|----------------||


 Bridge
  B5 A5G5F#5G5A5  B5    D5    C#5   D5    E5D5E5
  TP TPTPTP TPTP
  Q  E E Q  E E   S S S S S S S S S S S S E S S
|---------------|-------------------------------|
|---------------|-------------------------------|
|-4--2-0------2-|-------------------------------|
|--------4--5---|-4-4-4-7-7-7-6-6-6-7-7-7-9-7-9-|
|---------------|-2-2-2-5-5-5-4-4-4-5-5-5-7-5-7-|
|---------------|-------------------------------|
|
| Q  E E Q  E E   S S S S S S S S S S S S E S S
|---------------|-------------------------------|
|---------------|-------------------------------|
|---------------|-------------------------------|
|-4--2--------2-|-4-4-4-7-7-7-6-6-6-7-7-7-9-7-9-|
|-2--0-5-4--5-0-|-2-2-2-5-5-5-4-4-4-5-5-5-7-5-7-|
|------3-2--3---|-------------------------------|


   Verse
    Q=140
    (Em)                               G5                C5      B5  E
    Gtrs I, II
    E E E E E E E E   E E E E E E Q    E E E E E E E E   E E E E E E E E
||------------------|----------------|-----------------|-------------------||
||o-----------------|----------------|-----------------|------------------o||
||------------------|----------------|-----------------|-------------------||
||----5-5-4-4-------|---5-5-4-4-7-7--|-----------------|-5-5-5-5-4-4-------||
||o-----------------|----------------|-5-5-5-5-5-5-5-5-|-3-3-3-3-2-2------o||
||--0---------0-0-0-|-0--------------|-3-3-3-3-3-3-3-3-|-------------0-0---||


    (Em)                               G5                C5      B5  E
    Gtr I
    E E E E E E E E   E E E E E E Q    E E E E E E E E   E E E E E E E E
||------------------|----------------|-----------------|-------------------||
||o-----------------|----------------|-----------------|------------------o||
||------------------|----------------|-----------------|-------------------||
||----5-5-4-4-------|---5-5-4-4-7-7--|-----------------|-5-5-5-5-4-4-------||
||o-----------------|----------------|-5-5-5-5-5-5-5-5-|-3-3-3-3-2-2------o||
||--0---------0-0-0-|-0--------------|-3-3-3-3-3-3-3-3-|-------------0-0---||
|
|   Gtr II
|   E E E E E E E E   E E E E E E Q    E E E E E E E E   E E E E E E E E
||------------------|----------------|-----------------|-------------------||
||o-----------------|----------------|-----------------|------------------o||
||----4-4-2-2-------|---4-4-2-2-5-5--|-----------------|-------------------||
||------------------|----------------|-----------------|-5-5-5-5-4-4-------||
||o-----------------|----------------|-5-5-5-5-5-5-5-5-|-3-3-3-3-2-2------o||
||--0---------0-0-0-|-0--------------|-3-3-3-3-3-3-3-3-|-------------0-0---||


   Chorus
    N.C.
    Gtrs I, II
    TP   TP   TP   TP   TP   TP   TP         TP
    Q.   Q.   Q    Q.   Q.   Q    W          W     4x
||---------------|--------------|----------|-------||
||o--------------|--------------|----------|------o||
||---------------|--------------|----------|-------||
||---------------|--------------|----------|-------||
||o--------------|--------------|----------|------o||
||--0----2----3--|-5----7----3--|-2--------|-2-----||


   Verse
    (Em)                               G5                C5      B5  E
    Gtrs I, II
    E E E E E E E E   E E E E E E Q    E E E E E E E E   E E E E E E E E
||------------------|----------------|-----------------|-------------------||
||o-----------------|----------------|-----------------|------------------o||
||------------------|----------------|-----------------|-------------------||
||----5-5-4-4-------|---5-5-4-4-7-7--|-----------------|-5-5-5-5-4-4-------||
||o-----------------|----------------|-5-5-5-5-5-5-5-5-|-3-3-3-3-2-2------o||
||--0---------0-0-0-|-0--------------|-3-3-3-3-3-3-3-3-|-------------0-0---||


    C#5                                G5                C5      B5  E
    Gtr I
    E E E E E E E E   E E E E E E Q    E E E E E E E E   E E E E E E E E   4x
||------------------|----------------|-----------------|-------------------||
||o-----------------|----------------|-----------------|------------------o||
||------------------|----------------|-----------------|-------------------||
||----5-5-4-4-------|---5-5-4-4-7-7--|-----------------|-5-5-5-5-4-4-------||
||o-----------------|----------------|-5-5-5-5-5-5-5-5-|-3-3-3-3-2-2------o||
||--0---------0-0-0-|-0--------------|-3-3-3-3-3-3-3-3-|-------------0-0---||
|
|   Gtr II
|   E E E E E E E E   E E E E E E Q    E E E E E E E E   E E E E E E E E   4x
||------------------|----------------|-----------------|-------------------||
||o-----------------|----------------|-----------------|------------------o||
||----4-4-2-2-------|---4-4-2-2-5-5--|-----------------|-------------------||
||------------------|----------------|-----------------|-5-5-5-5-4-4-------||
||o-----------------|----------------|-5-5-5-5-5-5-5-5-|-3-3-3-3-2-2------o||
||--0---------0-0-0-|-0--------------|-3-3-3-3-3-3-3-3-|-------------0-0---||


 Outro
  (Em)
  E E E E E E E E   E E Q  H
|-----------------|-------------*|
|-----------------|-------------*|
|-----------------|-------------*|
|---5-5-4-4-------|-------------*|
|-----------------|-------------*|
|-0---------0-0-0-|-0-----------*|



Duration Legend
---------------
W - whole; H - half; Q - quarter; E - 8th; S - 16th; T - 32nd; X - 64th; a - acciaccatura
+ - note tied to previous; . - note dotted; .. - note double dotted
Uncapitalized letters represent notes that are staccato (1/2 duration)
Irregular groupings are notated above the duration line
Duration letters will always appear directly above the note/fret number it represents the
duration for.  Duration letters with no fret number below them represent rests.  Multi-
bar rests are notated in the form Wxn, where n is the number of bars to rest for.  Low
melody durations appear below the staff

Tablature Legend
----------------
 h   - hammer-on
 p   - pull-off
 b   - bend
 pb  - pre-bend
 r   - bend release (if no number after the r, then release immediately)
 /\  - slide into or out of (from/to "nowhere")
 s   - legato slide
 S   - shift slide
 - natural harmonic
[n]  - artificial harmonic
n(n) - tapped harmonic
 ~   - vibrato
 tr  - trill
 T   - tap
 TP  - trem. picking
 PM  - palm muting
\n/  - tremolo bar dip; n = amount to dip
 \n  - tremolo bar down
 n/  - tremolo bar up
/n\  - tremolo bar inverted dip
 =   - hold bend; also acts as connecting device for hammers/pulls
 <> - volume swell (louder/softer)
 x   - on rhythm slash represents muted slash
 o   - on rhythm slash represents single note slash

Misc Legend
-----------
 |  - bar
||  - double bar
||o - repeat start
o|| - repeat end
*|  - double bar (ending)
 :  - bar (freetime)
 $  - Segno
 &  - Coda
Tempo markers -  = BPM(8/16=s8/s16), where s8 = swing 8ths, s16 = swing 16ths

Tap to rate this tab
 
# A B C D E F G H I J K L M N O P Q R S T U V W X Y Z