Song name
# A B C D E F G H I J K L M N O P Q R S T U V W X Y Z

Amon Amarth - Cry Of The Blackbirds tab

this is tabbed to be played in drop B
well, thats how i was tuned when i tabbed it
any flaws, holla at me
teh.sex@hotmail.com




Intro

|---------------|---------------|---------------|---------------|
|---------------|---------------|---------------|---------------|
|---------------|---------------|---------------|--5------------|----------
|-----8----7----|--5----7----8--|-----8----7----|-------8----7--|          |
|--0-----0---0--|----0----0-----|--0-----0---0--|----0----0-----|          |
|---------------|---------------|---------------|---------------|          |
                                                                           |
                                                                           2x
|---------------|---------------|---------------|---------------|          |
|---------------|---------------|---------------|---------------|          |
|----10-----8---|--7----8-------|----12-----8---|--7------------|          |
|---------------|------------10-|---------------|------10----8--|----------
|--6----6-----6-|----6----6-----|--6----6-----6-|----6----6-----|
|---------------|---------------|---------------|---------------|


|--------------------|
|--------------------|
|--------------------|
|--7-10-8-7---8-8/10-|
|--------------------|
|--------------------|




|------------------------------------|----------------------------|
|------------------------------------|----------------------------|
|----------15---------14---------14--|----------14---------15-14--|     2x
|------12---------12---------12------|------12---------12---------|
|--10---------10---------10----------|--10---------10-------------|----------
|------------------------------------|----------------------------|         |
                                                                            |
                                                                            4x
|--------------------------------|--------------------------|               |
|--------------------------------|--------------------------|----------------
|---------10--------10---------8-|---------10---------8-----|
|------8---------8---------8-----|------8---------8-------8-|           2x
|--6---------6---------6---------|--6---------6-------------|
|--------------------------------|--------------------------|


Verse
|-----------|-----------|-----------|-----------|
|-----------|-----------|-6-4-3-4---|-6-4-3-----|
|-3-2-0-2-3-|-3-2-5-3-2-|---------5-|-------5-3-|   2x
|-----------|-----------|-----------|-----------|
|-----------|-----------|-----------|-----------|
|-----------|-----------|-----------|-----------|

Break
|-------------|
|-------------|
|-2-0-2-3-5-3-|
|-------------|
|-------------|
|-------------|



Chorus
|------------------------------------|----------------------------|
|------------------------------------|----------------------------|
|----------15---------14---------14--|----------14---------15-14--|     2x
|------12---------12---------12------|------12---------12---------|
|--10---------10---------10----------|--10---------10-------------|----------
|------------------------------------|----------------------------|         |
                                                                            |
                                                                            4x
|--------------------------------|--------------------------|               |
|--------------------------------|--------------------------|----------------
|---------10--------10---------8-|---------10---------8-----|
|------8---------8---------8-----|------8---------8-------8-|           2x
|--6---------6---------6---------|--6---------6-------------|
|--------------------------------|--------------------------|





Verse
|-----------|-----------|-----------|-----------|
|-----------|-----------|-6-4-3-4---|-6-4-3-----|
|-3-2-0-2-3-|-3-2-5-3-2-|---------5-|-------5-3-|   2x
|-----------|-----------|-----------|-----------|
|-----------|-----------|-----------|-----------|
|-----------|-----------|-----------|-----------|
Tap to rate this tab
 
# A B C D E F G H I J K L M N O P Q R S T U V W X Y Z