Song name
# A B C D E F G H I J K L M N O P Q R S T U V W X Y Z

Amon Amarth - Vallhall Awaits Me tab

Help us improve GuitareTab! Take a short survey!
Song: Vallhall Awaits Me
Artist: Amon Amarth
Album: With Oden on Our Side

Tab by: Wieland Christoph (wieland.christoph@web.de) (Xfire: wili13)

My First Tab i wrote it as i was 14 years old...this song is really melodic and sounds great
My English has a Bavarian Style...i know...

It sounds like the real version.. just drop E to C#
Hrt sich an wie die echte Version.. stimme dazu nur die E Saite auf C# 

Standard Tuning     B  - F#- B - E - G#- C#
Tuning for this Tab C# - A - D - G - H - E

aLL TuningS from LOW 2 HIGH

Intro 
E---------------------------------------------------------------------|
H---------------------------------------------------------------------|
G---------------------------------------------------------------------|
D---6-4-6-9--6-4-6----------------------------------------------------|
A---4-2-4-7----4-2-4----9-----7-----6-----7---6---2---4---------------|
c#-------------------------------------------------------------------|

Main Riff 
E----------------------------------------------------------------------|
H----------------------------------------------------------------------|
G----------------------------------------------2-----------------------|
D----------------------------------------------2-----------------------|
A--4-2-4-7-4-2-4---4-2-4-7-4-2-4---9-7-6-7-6-2-4-----------------------|
C#--------------------------------------------------------------------|

Riff 2 TREMELO
E----------------------------------------------------------------------|
H----------------------------------------------------------------------|
G----------------------------------------------------------------------|
D----------------------------------------------------------------------|
A---444---444---777---777---666---999---999----------------------------|
C#--------------------------------------------------------------------|

Riff 3
E----------------------------------------------------------------------|
H----------------------------------------------------------------------|
G---6-4-6-9-8-6-8-11-9-11-13-11-9-8-13---------------------------------|
D----------------------------------------------------------------------|
A---4-2-4-7-6-4-6-9--7-9--11-9--7-6-11---------------------------------|
C#--------------------------------------------------------------------| 

Chorus
E----------------------------------------------------------------------|
H----------------------------------------------------------------------|
G---6-4-6-9-8-6-8-11-9-11-13-11-9-8-13---------------------------------|
D----------------------------------------------------------------------|
A---4-2-4-7-6-4-6-9--7-9--11-9--7-6-11---------------------------------|
C#--------------------------------------------------------------------| 

Solo
E---12-11-9-11-12-11---------------------------------------------------|
H---------------------9---9-12--9-12-9---7-9-7---5--4--5-7-9-----------|
G----------------------------------------------------------------------|
D----------------------------------------------------------------------|
A----------------------------------------------------------------------|
C#--------------------------------------------------------------------|

E---12-11-9-11-12-11*--14--16-19-16--14-16-14--16-19-16----------------|
H--------------------------------------------------------12-14-16------|
G----------------------------------------------------------------------|
D----------------------------------------------------------------------|
A----------------------------------------------------------------------|
C#--------------------------------------------------------------------|

Solo Part2 (2 times reapeated)
E--------------|
H---17-14-16---|
G--------------| (4x)
D------ -------|
A--------------|
C#------------|    

E--------------|
H---16-12-14---|
G--------------| (4x)
D------ -------|
A--------------|
C#------------|  

E--------------|
H---14-10-12---|
G--------------| (4x)
D------ -------|
A--------------|
C#------------|  

E--------------|
H---12-9-10----|
G--------------| (4x)
D------ -------|
A--------------|
C#------------|  


=> RiFF 2 TREMOLO / ChorUS

hF gL
 ................... ............. /' /)
................./ /)........./ //
..............,/// ......... /...//
............./...//. ......./ //
...........//' / /.../ /
........./'.../... ./... /.../ //
........('(...(... ....... ,../'. .')
.........\.......... ..... ..\/..../
..         ...''...\.... ..... . _.
............\....... ..... ..(
.............\..... ..... ...\
Related for Vallhall Awaits Me tab