Song name
# A B C D E F G H I J K L M N O P Q R S T U V W X Y Z

Among The Thirsty - Id Need A Savior chords

Highlighted       Show chord diagrams
Among The Thirsty
I'd Need A Savior

Capo 2

  G        D/F#      Em         C        G/B        Bm        D
--3--     --3--     --3--     --3--     --3--     --2--     --2--
--3--     --3--     --3--     --3--     --3--     --3--     --3--
--0--     --2--     --0--     --0--     --0--     --4--     --2--
--0--     --0--     --2--     --2--     --0--     --4--     --0--
--2--     --0--     --2--     --3--     --2--     --2--     --x--
--3--     --2--     --0--     --x--     --x--     --x--     --x--



VERSE 1:

           G                D/F#
How many names Can I use to explain
               Em                      C
The love of my Jesus The life that He gave
               G                      D/F#
And so many times Will I praise You today
             Em                           C
I lift up my life Cause Youre always the same
        Am G/B C        Am G/B C
And my off-er-ing, To you I bring


CHORUS:

                G                Bm
Your name is Jesus Your name is Jesus
            C         G/B             Am       D
Youre the wonderful, counselor, my friend
              G                           Bm
Youre what I hold on to, I know that You brought me through
         C                  G/B          Am     D
All the days of loss to the cross, You knew
                     G             C
That Id need a Savior


VERSE 2:

            G                   D/F#
How many songs, Can I sing to proclaim
              Em                      C
Your wondrous love, Oh and beauty so great
                     G\                            D/F#
Oh and, What would I say, If You brought down the rain
        Em                          C
And everyday, I walked through the pain
                    Am G/B C
My heart would still say...


CHORUS:

                G                Bm
Your name is Jesus Your name is Jesus
            C           G/B             Am     D
Youre the wonderful, counselor, my friend
              G                           Bm
Youre what I hold on to, I know that You brought me through
         C               G/B                 Am     D
All the days of loss and to the cross, You knew


BRIDGE:

                    Am     D
That Id need a Savior


G       C  G/B  Am


 G/B    C         D
I need a Savior....woah


CHORUS:

              G                           Bm
Youre what I hold on to, I know that You brought me through
         C               G/B                 Am     D
All the days of loss and to the cross, You knew
                 G         C
That Id need a Savior
           G         C
Id need a Savior
                    G
I Need you  Savior



Technical Note:

The interlude played in between the G and C chords after the Chorus goes somewhat like this:
                           The Middle of the bridge like this:

|-3----------3------|------3-----------------------0---3---3---3---2|
|-3----------3------|------3-----------------------1---3---3---3---3|
|-0----0-0-0-0------|------0----0-0-0-----0-----0--2---0---0---2---2|
|-0----0-0-0-2------|------0----0-0-0---2-----0----2---0---2---0---0|
|-2----2-0-2-3------|------2----2-0-2-3-----2------0---2---3--------|
|-3----3-3----------|------3----3-3---------------------------------|
Tap to rate this tab
 
# A B C D E F G H I J K L M N O P Q R S T U V W X Y Z