Guitaretab - guitar tabs
Song name
# A B C D E F G H I J K L M N O P Q R S T U V W X Y Z

Amoral - Atrocity Evolution tab

            Atrocity Evolution


                                       Amoral
Guitar (6-string)



     PM PM PM PM         PM PM PM PM     PM P
     S  S  S  S  S S S S S  S  S  S  S S S  S
E||-------------------------------------------|
B||-------------------------------------------|
G||-------------------------------------------|
D||-------------------------------------------|
A||--------------7-8-7---------------5-3------|
E||--0--0--0--0--------9-0--0--0--0------4--3-|


  PM PM PM PM         PM PM
  S  S  S  S  S S S S S  S  Q    E
------------------------------------|
------------------------------------|
------------------------------------|
----------------------------7----8--|
--------------7-8-7---------5----6--|
--0--0--0--0--------9-0--0--5----6--|


  PM PM PM PM         PM PM PM PM     PM PM
  S  S  S  S  S S S S S  S  S  S  S S S  S
--------------------------------------------|
--------------------------------------------|
--------------------------------------------|
--------------------------------------------|
--------------7-8-7---------------5-3-------|
--0--0--0--0--------9-0--0--0--0------4--3--|


  PM PM
  S  S  E.  E.  Q    E  E
---------------------------|
---------------------------|
---------------------------|
--------6---5---8----8--8--|
--------6---5---8----8--8--|
--0--0--4---3---6----6--6--|


  PM PM PM PM         PM PM PM PM     PM PM
  S  S  S  S  S S S S S  S  S  S  S S S  S
--------------------------------------------|
--------------------------------------------|
--------------------------------------------|
--------------------------------------------|
--------------7-8-7---------------5-3-------|
--0--0--0--0--------9-0--0--0--0------4--3--|


  PM PM PM PM         PM PM
  S  S  S  S  S S S S S  S  Q    E
------------------------------------|
------------------------------------|
------------------------------------|
----------------------------7----8--|
--------------7-8-7---------5----6--|
--0--0--0--0--------9-0--0--5----6--|


  PM PM PM PM         PM PM PM PM     PM PM
  S  S  S  S  S S S S S  S  S  S  S S S  S
--------------------------------------------|
--------------------------------------------|
--------------------------------------------|
--------------------------------------------|
--------------7-8-7---------------5-3-------|
--0--0--0--0--------9-0--0--0--0------4--3--|


  PM PM
  S  S  E.  E.  Q    E  E
---------------------------|
---------------------------|
---------------------------|
--------6---5---8----8--8--|
--------6---5---8----8--8--|
--0--0--4---3---6----6--6--|


  PM PM PM PM         PM PM PM PM     PM PM
  S  S  S  S  S S S S S  S  S  S  S S S  S
--------------------------------------------|
--------------------------------------------|
--------------------------------------------|
--------------------------------------------|
--------------7-8-7---------------5-3-------|
--0--0--0--0--------9-0--0--0--0------4--3--|


  PM PM PM PM         PM PM
  S  S  S  S  S S S S S  S  Q    E
------------------------------------|
------------------------------------|
------------------------------------|
----------------------------7----8--|
--------------7-8-7---------5----6--|
--0--0--0--0--------9-0--0--5----6--|


  PM PM PM PM         PM PM PM PM     PM PM
  S  S  S  S  S S S S S  S  S  S  S S S  S
--------------------------------------------|
--------------------------------------------|
--------------------------------------------|
--------------------------------------------|
--------------7-8-7---------------5-3-------|
--0--0--0--0--------9-0--0--0--0------4--3--|


  PM PM
  S  S  E.  E.  Q    E  E
---------------------------|
---------------------------|
---------------------------|
--------6---5---8----8--8--|
--------6---5---8----8--8--|
--0--0--4---3---6----6--6--|


  PM PM PM PM         PM PM PM PM     PM PM
  S  S  S  S  S S S S S  S  S  S  S S S  S
--------------------------------------------|
--------------------------------------------|
--------------------------------------------|
--------------------------------------------|
--------------7-8-7---------------5-3-------|
--0--0--0--0--------9-0--0--0--0------4--3--|


  PM PM PM PM         PM PM
  S  S  S  S  S S S S S  S  Q    E
------------------------------------|
------------------------------------|
------------------------------------|
----------------------------7----8--|
--------------7-8-7---------5----6--|
--0--0--0--0--------9-0--0--5----6--|


  PM PM PM PM         PM PM PM PM     PM PM
  S  S  S  S  S S S S S  S  S  S  S S S  S
--------------------------------------------|
--------------------------------------------|
--------------------------------------------|
--------------------------------------------|
--------------7-8-7---------------5-3-------|
--0--0--0--0--------9-0--0--0--0------4--3--|


  PM PM
  S  S  E.  E.  Q    E  E
---------------------------|
---------------------------|
---------------------------|
--------6---5---8----8--8--|
--------6---5---8----8--8--|
--0--0--4---3---6----6--6--|


  PM PM          PM PM     PM PM
  S  S  S E.  E  S  S  S S S  S  S S
-------------------------------------|
-------------------------------------|
-------------------------------------|
-------------------------------------|
----------5---4----------------------|
--2--2-----------2--2------2--2----3-|


        PM PM
  E  E  S  S  S S E.  E.  E
-----------------------------|
-----------------------------|
-----------------------------|
--------------------------1--|
------------------4---2---1--|
--L--2--2--2------2---0------|


  PM PM          PM PM     PM PM
  S  S  S E.  E  S  S  S S S  S  S  S
--------------------------------------|
--------------------------------------|
--------------------------------------|
--------------------------------------|
----------5---4--------------------/5-|
--2--2-----------2--2------2--2----/5-|


        PM PM   PM
  E  E  S  S  S S    H
-------------------------------|
-------------------------------|
-------------------------------|
-------------------------------|
--L--7-------------------------|
--L--7--2--2----2--<>3~--------|


  PM PM          PM PM     PM PM
  S  S  S E.  E  S  S  S S S  S  S S
-------------------------------------|
-------------------------------------|
-------------------------------------|
-------------------------------------|
----------5---4----------------------|
--2--2-----------2--2------2--2----3-|


        PM PM
  E  E  S  S  S S E.  E.  E
-----------------------------|
-----------------------------|
-----------------------------|
--------------------------1--|
------------------4---2---1--|
--L--2--2--2------2---0------|


  PM PM
                 |--3--|  |--3--|
  S  S  S E.  E  E  E  E  E  E  E
-----------------------------------|
-----------------------------------|
-----------------------------------|
-----------------------------------|
----------5---4--------------------|
--2--2-----------5--5--5--7--7--7--|


  Q     E  E  E.  E.  E
-------------------------|
-------------------------|
-------------------------|
-------------------------|
------------------5------|
--0----/7--0--5-------2--|


  PM PM          PM PM     PM PM
  S  S  S E.  E  S  S  S S S  S  S S
-------------------------------------|
-------------------------------------|
-------------------------------------|
-------------------------------------|
----------5---4----------------------|
--2--2-----------2--2------2--2----3-|


        PM PM
  E  E  S  S  S S E.  E.  E
-----------------------------|
-----------------------------|
-----------------------------|
--------------------------1--|
------------------4---2---1--|
--L--2--2--2------2---0------|


  PM PM          PM PM     PM PM
  S  S  S E.  E  S  S  S S S  S  S  S
--------------------------------------|
--------------------------------------|
--------------------------------------|
--------------------------------------|
----------5---4--------------------/5-|
--2--2-----------2--2------2--2----/5-|


        PM PM   PM
  E  E  S  S  S S    H
-------------------------------|
-------------------------------|
-------------------------------|
-------------------<>6~--------|
--L--7-------------------------|
--L--7--2--2----2--------------|


  PM PM          PM PM     PM PM
  S  S  S E.  E  S  S  S S S  S  S S
-------------------------------------|
-------------------------------------|
-------------------------------------|
-------------------------------------|
----------5---4----------------------|
--2--2-----------2--2------2--2----3-|


        PM PM
  E  E  S  S  S S E.  E.  E
-----------------------------|
-----------------------------|
-----------------------------|
--------------------------1--|
------------------4---2---1--|
--L--2--2--2------2---0------|


  PM PM
                 |--3--|  |--3--|
  S  S  S E.  E  E  E  E  E  E  E
-----------------------------------|
-----------------------------------|
-----------------------------------|
-----------------------------------|
----------5---4--------------------|
--2--2-----------5--5--5--7--7--7--|


  Q     E  E  E.  E.  E
-------------------------|
-------------------------|
-------------------------|
-------------------------|
------------------5------|
--0----/7--0--5-------2--|


             PM PM            PM PM
  S  S  S  S S  S  S  S  S  S S  S  S  S  S
---------------------------------------------|
---------------------------------------------|
---------------------------------------------|
---------------------------------------------|
--2h-5p-2h-5-------2h-3p-2h-3-------2h-5p-2h-|
-------------2--2-------------2--2-----------|


    SHPM PM PM PM PM   PM PM PM PM PM
    S S  S  S  S  S  S S  S  S  S  S  Q
-------------------------------------------|
-------------------------------------------|
-------------------------------------------|
--------------------------------------5----|
--<>2---------------------------------3----|
------2--2--2--2--2----2--2--2--2--2--3----|


             PM PM            PM PM
  S  S  S  S S  S  S  S  S  S S  S  S  S  S
---------------------------------------------|
---------------------------------------------|
---------------------------------------------|
---------------------------------------------|
--2h-5p-2h-5-------2h-3p-2h-3-------2h-5p-2h-|
-------------2--2-------------2--2-----------|


    SHPM PM PM PM PM PM PM
    S S  S  S  S  S  S  S  Q    Q
-------------------------------------|
-------------------------------------|
-------------------------------------|
---------------------------5----8----|
--<>2----------------------3----6----|
------2--2--2--2--2--2--2--3----6----|


             PM PM            PM PM
  S  S  S  S S  S  S  S  S  S S  S  S  S  S
---------------------------------------------|
---------------------------------------------|
---------------------------------------------|
---------------------------------------------|
--2h-5p-2h-5-------2h-3p-2h-3-------2h-5p-2h-|
-------------2--2-------------2--2-----------|


    SHPM PM PM PM PM   PM PM PM PM PM
    S S  S  S  S  S  S S  S  S  S  S  Q
-------------------------------------------|
-------------------------------------------|
-------------------------------------------|
--------------------------------------5----|
--<>2---------------------------------3----|
------2--2--2--2--2----2--2--2--2--2--3----|


             PM PM            PM PM
  S  S  S  S S  S  S  S  S  S S  S  S  S  S
---------------------------------------------|
---------------------------------------------|
---------------------------------------------|
---------------------------------------------|
--2h-5p-2h-5-------2h-3p-2h-3-------2h-5p-2h-|
-------------2--2-------------2--2-----------|


    SHPM PM PM PM PM PM PM
    S S  S  S  S  S  S  S  Q    Q
-------------------------------------|
-------------------------------------|
-------------------------------------|
---------------------------5----8----|
--<>2----------------------3----6----|
------2--2--2--2--2--2--2--3----6----|


             PM PM            PM PM
  S  S  S  S S  S  S  S  S  S S  S  S  S  S
---------------------------------------------|
---------------------------------------------|
---------------------------------------------|
---------------------------------------------|
--2h-5p-2h-5-------2h-3p-2h-3-------2h-5p-2h-|
-------------2--2-------------2--2-----------|


    SHPM PM PM PM PM   PM PM PM PM PM
    S S  S  S  S  S  S S  S  S  S  S  Q
-------------------------------------------|
-------------------------------------------|
-------------------------------------------|
--------------------------------------5----|
--<>2---------------------------------3----|
------2--2--2--2--2----2--2--2--2--2--3----|


             PM PM            PM PM
  S  S  S  S S  S  S  S  S  S S  S  S  S  S
---------------------------------------------|
---------------------------------------------|
---------------------------------------------|
---------------------------------------------|
--2h-5p-2h-5-------2h-3p-2h-3-------2h-5p-2h-|
-------------2--2-------------2--2-----------|


    SHPM PM PM PM PM PM PM
    S S  S  S  S  S  S  S  Q    Q
-------------------------------------|
-------------------------------------|
-------------------------------------|
---------------------------5----8----|
--<>2----------------------3----6----|
------2--2--2--2--2--2--2--3----6----|


             PM PM            PM PM
  S  S  S  S S  S  S  S  S  S S  S  S  S  S
---------------------------------------------|
---------------------------------------------|
---------------------------------------------|
---------------------------------------------|
--2h-5p-2h-5-------2h-3p-2h-3-------2h-5p-2h-|
-------------2--2-------------2--2-----------|


    SHPM PM PM PM PM   PM PM PM PM PM
    S S  S  S  S  S  S S  S  S  S  S  Q
-------------------------------------------|
-------------------------------------------|
-------------------------------------------|
--------------------------------------5----|
--<>2---------------------------------3----|
------2--2--2--2--2----2--2--2--2--2--3----|


             PM PM            PM PM
  S  S  S  S S  S  S  S  S  S S  S  S  S  S
---------------------------------------------|
---------------------------------------------|
---------------------------------------------|
---------------------------------------------|
--2h-5p-2h-5-------2h-3p-2h-3-------2h-5p-2h-|
-------------2--2-------------2--2-----------|


    SHPM PM PM PM PM PM PM
    S S  S  S  S  S  S  S  Q    Q
-------------------------------------|
-------------------------------------|
-------------------------------------|
---------------------------5----8----|
--<>2----------------------3----6----|
------2--2--2--2--2--2--2--3----6----|


             PM PM            PM PM
  S  S  S  S S  S  S  S  S  S S  S  S  S  S
---------------------------------------------|
---------------------------------------------|
---------------------------------------------|
---------------------------------------------|
--2h-5p-2h-5-------2h-3p-2h-3-------2h-5p-2h-|
-------------2--2-------------2--2-----------|


    SHPM PM PM PM PM   PM PM PM PM PM
    S S  S  S  S  S  S S  S  S  S  S  Q
-------------------------------------------|
-------------------------------------------|
-------------------------------------------|
--------------------------------------5----|
--<>2---------------------------------3----|
------2--2--2--2--2----2--2--2--2--2--3----|


             PM PM            PM PM
  S  S  S  S S  S  S  S  S  S S  S  S  S  S
---------------------------------------------|
---------------------------------------------|
---------------------------------------------|
---------------------------------------------|
--2h-5p-2h-5-------2h-3p-2h-3-------2h-5p-2h-|
-------------2--2-------------2--2-----------|


    SHPM PM PM PM PM PM PM
    S S  S  S  S  S  S  S  Q    Q
-------------------------------------|
-------------------------------------|
-------------------------------------|
---------------------------5----8----|
--<>2----------------------3----6----|
------2--2--2--2--2--2--2--3----6----|


             PM PM            PM PM
  S  S  S  S S  S  S  S  S  S S  S  S  S  S
---------------------------------------------|
---------------------------------------------|
---------------------------------------------|
---------------------------------------------|
--2h-5p-2h-5-------2h-3p-2h-3-------2h-5p-2h-|
-------------2--2-------------2--2-----------|


    SHPM PM PM PM PM   PM PM PM PM PM
    S S  S  S  S  S  S S  S  S  S  S  Q
-------------------------------------------|
-------------------------------------------|
-------------------------------------------|
--------------------------------------5----|
--<>2---------------------------------3----|
------2--2--2--2--2----2--2--2--2--2--3----|


             PM PM            PM PM
  S  S  S  S S  S  S  S  S  S S  S  S  S  S
---------------------------------------------|
---------------------------------------------|
---------------------------------------------|
---------------------------------------------|
--2h-5p-2h-5-------2h-3p-2h-3-------2h-5p-2h-|
-------------2--2-------------2--2-----------|


    SHPM PM PM PM PM PM PM
    S S  S  S  S  S  S  S  Q    Q
-------------------------------------|
-------------------------------------|
-------------------------------------|
---------------------------5----8----|
--<>2----------------------3----6----|
------2--2--2--2--2--2--2--3----6----|


   PM            PM   PM PM   PM PM
   E   E  Q.     S  S S  S  S S  S  E.
----------------------------------------|
----------------------------------------|
----------------------------------------|
----------5-----------------------------|
----------5------2----2--2----2--2------|
--(0)-----3------0----0--0----0--0------|


  Q.     S S S S S S S S S S
-----------------------------|
-----------------------------|
--9--------------------------|
---------------6-7-9-7-6---7-|
--7------5-6-7-----------7---|
-----------------------------|


               PM   PM PM   PM PM
   S  S S E.   S  S S  S  S S  S  E.
--------------------------------------|
--------------------------------------|
--------------------------------------|
--(6)-6-------------------------------|
--------6-7S---2----2--2----2--2------|
---------------0----0--0----0--0------|


  Q.     S S S S S S S S S S
-----------------------------|
-----------------------------|
--9--------------------------|
---------------6-7-9-7-6-----|
--7------5-6-7-----------7-6-|
-----------------------------|


                     PM PM PM PM
                     |--3--|
  S S S S  Q    Q    S  S  S  S  S
-----------------------------------|
-----------------------------------|
-----------------------------------|
-----------------------------------|
--5------------------7--7--7--7----|
----8-7-5s-1----4----0--0--0--0----|


  PM PM PM PM          PM   PM PM   PM PM
  |--3--|
  S  S  S  S  S Q.     S  S S  S  S S  S  E.
---------------------------------------------|
---------------------------------------------|
---------------------------------------------|
----------------5----------------------------|
--7--7--7--7----5------2----2--2----2--2-----|
--0--0--0--0----3------0----0--0----0--0-----|


  Q.     S S S S S S S S S S
-----------------------------|
-----------------------------|
--9--------------------------|
---------------6-7-9-7-6---7-|
--7------5-6-7-----------7---|
-----------------------------|


             PM   PM PM   PM PM
  S S S E.   S  S S  S  S S  S  E.
------------------------------------|
------------------------------------|
------------------------------------|
--6-6-------------------------------|
------6-7S---2----2--2----2--2------|
-------------0----0--0----0--0------|


    Q.     S S S S S S S S S S
-------------------------------|
-------------------------------|
--xg9--------------------------|
-----------------6-7-9-7-6-----|
--xg7------5-6-7-----------7-6-|
-------------------------------|


                     PM PM
  S S S S  Q    Q    S  E  S
-----------------------------|
-----------------------------|
-----------------------------|
-----------------------------|
--5------------------2--2----|
----8-7-5s-1----4----0--0----|


  PM PM
  S  E  E  E.
---------------|
---------------|
---------------|
---------------|
--2--2---------|
--0--0---------|


             PM PM            PM PM
  S  S  S  S S  S  S  S  S  S S  S  S  S  S
---------------------------------------------|
---------------------------------------------|
---------------------------------------------|
---------------------------------------------|
--2h-5p-2h-5-------2h-3p-2h-3-------2h-5p-2h-|
-------------2--2-------------2--2-----------|


    SHPM PM PM PM PM   PM PM PM PM PM
    S S  S  S  S  S  S S  S  S  S  S  Q
-------------------------------------------|
-------------------------------------------|
-------------------------------------------|
--------------------------------------5----|
--<>2---------------------------------3----|
------2--2--2--2--2----2--2--2--2--2--3----|


             PM PM            PM PM
  S  S  S  S S  S  S  S  S  S S  S  S  S  S
---------------------------------------------|
---------------------------------------------|
---------------------------------------------|
---------------------------------------------|
--2h-5p-2h-5-------2h-3p-2h-3-------2h-5p-2h-|
-------------2--2-------------2--2-----------|


    SHPM PM PM PM PM PM PM
    S S  S  S  S  S  S  S  Q    Q
-------------------------------------|
-------------------------------------|
-------------------------------------|
---------------------------5----8----|
--<>2----------------------3----6----|
------2--2--2--2--2--2--2--3----6----|


             PM PM            PM PM
  S  S  S  S S  S  S  S  S  S S  S  S  S  S
---------------------------------------------|
---------------------------------------------|
---------------------------------------------|
---------------------------------------------|
--2h-5p-2h-5-------2h-3p-2h-3-------2h-5p-2h-|
-------------2--2-------------2--2-----------|


    SHPM PM PM PM PM   PM PM PM PM PM
    S S  S  S  S  S  S S  S  S  S  S  Q
-------------------------------------------|
-------------------------------------------|
-------------------------------------------|
--------------------------------------5----|
--<>2---------------------------------3----|
------2--2--2--2--2----2--2--2--2--2--3----|


             PM PM            PM PM
  S  S  S  S S  S  S  S  S  S S  S  S  S  S
---------------------------------------------|
---------------------------------------------|
---------------------------------------------|
---------------------------------------------|
--2h-5p-2h-5-------2h-3p-2h-3-------2h-5p-2h-|
-------------2--2-------------2--2-----------|


    SHPM PM PM PM PM PM PM
    S S  S  S  S  S  S  S  Q    Q
-------------------------------------|
-------------------------------------|
-------------------------------------|
---------------------------5----8----|
--<>2----------------------3----6----|
------2--2--2--2--2--2--2--3----6----|


             PM PM            PM PM
  S  S  S  S S  S  S  S  S  S S  S  S  S  S
---------------------------------------------|
---------------------------------------------|
---------------------------------------------|
---------------------------------------------|
--2h-5p-2h-5-------2h-3p-2h-3-------2h-5p-2h-|
-------------2--2-------------2--2-----------|


    SHPM PM PM PM PM   PM PM PM PM PM
    S S  S  S  S  S  S S  S  S  S  S  Q
-------------------------------------------|
-------------------------------------------|
-------------------------------------------|
--------------------------------------5----|
--<>2---------------------------------3----|
------2--2--2--2--2----2--2--2--2--2--3----|


             PM PM            PM PM
  S  S  S  S S  S  S  S  S  S S  S  S  S  S
---------------------------------------------|
---------------------------------------------|
---------------------------------------------|
---------------------------------------------|
--2h-5p-2h-5-------2h-3p-2h-3-------2h-5p-2h-|
-------------2--2-------------2--2-----------|


    SHPM PM PM PM PM PM PM
    S S  S  S  S  S  S  S  Q    Q
-------------------------------------|
-------------------------------------|
-------------------------------------|
---------------------------5----8----|
--<>2----------------------3----6----|
------2--2--2--2--2--2--2--3----6----|


             PM PM            PM PM
  S  S  S  S S  S  S  S  S  S S  S  S  S  S
---------------------------------------------|
---------------------------------------------|
---------------------------------------------|
---------------------------------------------|
--2h-5p-2h-5-------2h-3p-2h-3-------2h-5p-2h-|
-------------2--2-------------2--2-----------|


    SHPM PM PM PM PM   PM PM PM PM PM
    S S  S  S  S  S  S S  S  S  S  S  Q
-------------------------------------------|
-------------------------------------------|
-------------------------------------------|
--------------------------------------5----|
--<>2---------------------------------3----|
------2--2--2--2--2----2--2--2--2--2--3----|


             PM PM            PM PM
  S  S  S  S S  S  S  S  S  S S  S  S  S  S
---------------------------------------------|
---------------------------------------------|
---------------------------------------------|
---------------------------------------------|
--2h-5p-2h-5-------2h-3p-2h-3-------2h-5p-2h-|
-------------2--2-------------2--2-----------|


    SHPM PM PM PM PM PM PM
    S S  S  S  S  S  S  S  Q    Q
-------------------------------------|
-------------------------------------|
-------------------------------------|
---------------------------5----8----|
--<>2----------------------3----6----|
------2--2--2--2--2--2--2--3----6----|


       PM PM
  Q    E  E  E  E  Q
------------------------|
------------------------|
-------------------3----|
------------------------|
--2----------2----------|
--2----2--3--2----------|


                  PM PM
  E  E  Q    Q    E  E
------------------------|
------------------------|
------------------------|
--1--2------------------|
--------1----2----------|
------------------1--4--|


  PM PM
  E  E  S  S  S  S E  E  E  E
-------------------------------|
-------------------------------|
-------------------------------|
-------------------------1--0--|
--3--2--1h-2p-1h-2----2--------|
-------------------4-----------|


  E  E  Q    Q      Q
-------------------------|
--------3----2br---------|
--------------------2----|
--1--5-------------------|
-------------------------|
-------------------------|


          PM PM
  Q.      E  E  Q.
-----------------------|
-----------------------|
-----------------------|
--5~-------------------|
----------------3------|
----------3--3--3------|


       PM PM
  Q    E  E  E  E  Q
------------------------|
------------------------|
-------------------3----|
------------------------|
--2----------2----------|
--2----2--3--2----------|


                  PM PM
  E  E  Q    Q    E  E
------------------------|
------------------------|
------------------------|
--1--2------------------|
--------1----2----------|
------------------1--4--|


  PM PM
  E  E  S  S  S  S E  E  E  E
-------------------------------|
-------------------------------|
-------------------------------|
-------------------------1--0--|
--3--2--1h-2p-1h-2----2--------|
-------------------4-----------|


  E  E  Q    Q      Q    Q
-------------------------------|
--------3----2br---------------|
--------------------2----------|
--1--5-------------------5\----|
-------------------------------|
-------------------------------|


       PM PM
  Q    E  E  E  E  Q
------------------------|
------------------------|
-------------------3----|
------------------------|
--2----------2----------|
--2----2--3--2----------|


                  PM PM
  E  E  Q    Q    E  E
------------------------|
------------------------|
------------------------|
--1--2------------------|
--------1----2----------|
------------------1--4--|


  PM PM
  E  E  S  S  S  S E  E  E  E
-------------------------------|
-------------------------------|
-------------------------------|
-------------------------1--0--|
--3--2--1h-2p-1h-2----2--------|
-------------------4-----------|


  E  E  Q    Q      Q
-------------------------|
--------3----2br---------|
--------------------2----|
--1--5-------------------|
-------------------------|
-------------------------|


    SH
    W.
---------------------|
---------------------|
---------------------|
--<>5----------------|
---------------------|
---------------------|


  PM PM PM PM PM PM PM PM PM PM PM PM PM PM P
  S  S  S  S  S  S  S  S  S  S  S  S  S  S  S
----------------------------------------------|
----------------------------------------------|
----------------------------------------------|
----------------------------------------------|
----------------------------------------------|
--4--1--0--1--0--1--4--1--0--1--0--1--4--1--0-|


  PM PM PM PM PM PM PM PM PM PM PM PM PM PM P
  S  S  S  S  S  S  S  S  S  S  S  S  S  S  S
----------------------------------------------|
----------------------------------------------|
----------------------------------------------|
----------------------------------------------|
----------------------------------------------|
--2--1--0--1--0--1--4--1--0--1--0--1--4--4--4-|


  PM PM PM PM PM PM PM PM PM PM PM PM PM PM P
  S  S  S  S  S  S  S  S  S  S  S  S  S  S  S
----------------------------------------------|
----------------------------------------------|
----------------------------------------------|
----------------------------------------------|
----------------------------------------------|
--4--1--0--1--0--1--4--1--0--1--0--1--4--1--0-|


  PM PM PM PM PM PM PM PM PM PM PM PM
  S  S  S  S  S  S  S  S  S  S  S  S  S  E.
---------------------------------------------|
---------------------------------------------|
---------------------------------------------|
---------------------------------------------|
--------------------------------------5S-6---|
--2--1--0--1--0--1--4--1--0--1--0--1--3S-4---|


  PM PM PM PM PM PM PM PM PM PM PM PM PM PM P
  S  S  S  S  S  S  S  S  S  S  S  S  S  S  S
----------------------------------------------|
----------------------------------------------|
----------------------------------------------|
----------------------------------------------|
----------------------------------------------|
--4--1--0--1--0--1--4--1--0--1--0--1--4--1--0-|


  PM PM PM PM PM PM PM PM PM PM PM PM PM PM P
  S  S  S  S  S  S  S  S  S  S  S  S  S  S  S
----------------------------------------------|
----------------------------------------------|
----------------------------------------------|
----------------------------------------------|
----------------------------------------------|
--2--1--0--1--0--1--4--1--0--1--0--1--4--4--4-|


  PM PM PM PM PM PM PM PM PM PM PM PM PM PM P
  S  S  S  S  S  S  S  S  S  S  S  S  S  S  S
----------------------------------------------|
----------------------------------------------|
----------------------------------------------|
----------------------------------------------|
----------------------------------------------|
--4--1--0--1--0--1--4--1--0--1--0--1--4--1--0-|


  PM PM PM PM PM PM PM PM PM PM PM PM
  S  S  S  S  S  S  S  S  S  S  S  S  S  E.
---------------------------------------------|
---------------------------------------------|
---------------------------------------------|
---------------------------------------------|
--------------------------------------5S-6---|
--2--1--0--1--0--1--4--1--0--1--0--1--3S-4---|


       PM PM
  Q    E  E  E  E  Q
------------------------|
------------------------|
-------------------3----|
------------------------|
--2----------2----------|
--2----2--3--2----------|


                  PM PM
  E  E  Q    Q    E  E
------------------------|
------------------------|
------------------------|
--1--2------------------|
--------1----2----------|
------------------1--4--|


  PM PM
  E  E  S  S  S  S E  E  E  E
-------------------------------|
-------------------------------|
-------------------------------|
-------------------------1--0--|
--3--2--1h-2p-1h-2----2--------|
-------------------4-----------|


  E  E  Q    Q      Q
-------------------------|
--------3----2br---------|
--------------------2----|
--1--5-------------------|
-------------------------|
-------------------------|


          \1/
  E  E    H.
-----------------------|
-----------------------|
--------<>5------------|
--5--0-----------------|
-----------------------|
-----------------------|


       PM PM
  Q    E  E  E  E  Q
------------------------|
------------------------|
-------------------3----|
------------------------|
--2----------2----------|
--2----2--3--2----------|


                  PM PM
  E  E  Q    Q    E  E
------------------------|
------------------------|
------------------------|
--1--2------------------|
--------1----2----------|
------------------1--4--|


  PM PM
  E  E  S  S  S  S E  E  E  E
-------------------------------|
-------------------------------|
-------------------------------|
-------------------------1--0--|
--3--2--1h-2p-1h-2----2--------|
-------------------4-----------|


  E  E  Q    Q      Q    Q
-------------------------------|
--------3----2br---------------|
--------------------2----------|
--1--5-------------------5\----|
-------------------------------|
-------------------------------|


       PM PM
  Q    E  E  E  E  Q
------------------------|
------------------------|
-------------------3----|
------------------------|
--2----------2----------|
--2----2--3--2----------|


                  PM PM
  E  E  Q    Q    E  E
------------------------|
------------------------|
------------------------|
--1--2------------------|
--------1----2----------|
------------------1--4--|


  PM PM
  E  E  S  S  S  S E  E  E  E
-------------------------------|
-------------------------------|
-------------------------------|
-------------------------1--0--|
--3--2--1h-2p-1h-2----2--------|
-------------------4-----------|


  E  E  Q    Q      Q
-------------------------|
--------3----2br---------|
--------------------2----|
--1--5-------------------|
-------------------------|
-------------------------|


    SH
    W.
---------------------|
---------------------|
---------------------|
--<>5----------------|
---------------------|
---------------------|


           |-3-| |-3-|          |-3-| |-3-|
  E.    S  S S S S S S E.    S  S S S S S S
--------------------------------------------|
--------------------------------------------|
--------------------------------------------|
--2S---(x)-------------5S---(x)-------------|
--2S---(x)-------------5S---(x)-------------|
-----------0---0-0-0------------0---0-0-0---|


           |-3-| |-3-| |---3---|  |---3---|
  E.    S  S S S S S S E   E   E  E   E   E
---------------------------------------------|
---------------------------------------------|
---------------------------------------------|
--5S---(x)-------------5S--6S--5--2S--3S--2--|
--5S---(x)-------------5S--6S--5--2S--3S--2--|
-----------0---0-0-0-------------------------|


           |-3-| |-3-|          |-3-| |-3-|
  E.    S  S S S S S S E.    S  S S S S S S
--------------------------------------------|
--------------------------------------------|
--------------------------------------------|
--5S---(x)-------------5S---(x)-------------|
--5S---(x)-------------5S---(x)-------------|
-----------0---0-0-0------------0---0-0-0---|


                       PM PM PM
           |-3-| |-3-| |--3--|   |---3---|
  E.    S  S S S S S S E  E  E   E   E   E
---------------------------------------------|
---------------------------------------------|
---------------------------------------------|
--5S---(x)----------------5------8-------7---|
--5S---(x)-------------7-----7--(7)--7--(7)--|
-----------0---0-0-0-------------------------|


           |-3-| |-3-|          |-3-| |-3-|
  E.    S  S S S S S S E.    S  S S S S S S
--------------------------------------------|
--------------------------------------------|
--------------------------------------------|
-----------------------5S---(x)-------------|
--5S---(x)-------------5S---(x)-------------|
--5S---(x)-0---0-0-0------------0---0-0-0---|


           |-3-| |-3-| |---3---|  |---3---|
  E.    S  S S S S S S E   E   E  E   E   E
---------------------------------------------|
---------------------------------------------|
---------------------------------------------|
--5S---(x)-------------5S--6S--5--2S--3S--2--|
--5S---(x)-------------5S--6S--5--2S--3S--2--|
-----------0---0-0-0-------------------------|


           |-3-| |-3-|          |-3-| |-3-|
  E.    S  S S S S S S E.    S  S S S S S S
--------------------------------------------|
--------------------------------------------|
--------------------------------------------|
--5S---(x)-------------5S---(x)-------------|
--5S---(x)-------------5S---(x)-------------|
-----------0---0-0-0------------0---0-0-0---|


                       PM PM PM PM PM PM
           |-3-| |-3-| |--3--|  |--3--|
  E.    S  S S S S S S E  E  E  E  E  E
-----------------------------------------|
-----------------------------------------|
-----------------------------------------|
--5S---(x)----------------5-----8-----7--|
--5S---(x)-------------7-----7-----7-----|
-----------0---0-0-0---------------------|


           |-3-| |-3-|          |-3-| |-3-|
  E.    S  S S S S S S E.    S  S S S S S S
--------------------------------------------|
--------------------------------------------|
--------------------------------------------|
--5S---(x)-------------5S---(x)-------------|
--------------------------------------------|
-----------0---0-0-0------------0---0-0-0---|


           |-3-| |-3-| |---3---|  |---3---|
  E.    S  S S S S S S E   E   E  E   E   E
---------------------------------------------|
---------------------------------------------|
---------------------------------------------|
--5S---(x)-------------5h--6p--5--2h--3p--2--|
---------------------------------------------|
-----------0---0-0-0-------------------------|


           |-3-| |-3-|          |-3-| |-3-|
  E.    S  S S S S S S E.    S  S S S S S S
--------------------------------------------|
--------------------------------------------|
--------------------------------------------|
--5S---(x)-------------5S---(x)-------------|
--------------------------------------------|
-----------0---0-0-0------------0---0-0-0---|


           |-3-| |-3-| |---3---|  |---3---|
  E.    S  S S S S S S E   E   E  E   E   E
---------------------------------------------|
---------------------------------------------|
---------------------------------------------|
--5S---(x)-------------5h--6p--5--2h--3p--2--|
---------------------------------------------|
-----------0---0-0-0-------------------------|


           |-3-| |-3-|          |-3-| |-3-|
  E.    S  S S S S S S E.    S  S S S S S S
--------------------------------------------|
--------------------------------------------|
--------------------------------------------|
--5S---(x)-------------5S---(x)-------------|
--------------------------------------------|
-----------0---0-0-0------------0---0-0-0---|


           |-3-| |-3-| |---3---|  |---3---|
  E.    S  S S S S S S E   E   E  E   E   E
---------------------------------------------|
---------------------------------------------|
---------------------------------------------|
--5S---(x)-------------5h--6p--5--2h--3p--2--|
---------------------------------------------|
-----------0---0-0-0-------------------------|


           |-3-| |-3-|          |-3-| |-3-|
  E.    S  S S S S S S E.    S  S S S S S S
--------------------------------------------|
--------------------------------------------|
--------------------------------------------|
--5S---(x)-------------5S---(x)-------------|
--------------------------------------------|
-----------0---0-0-0------------0---0-0-0---|


           |---3---|  |---3---|
  E.    S  E   E   E  E   E   E  Q
--------------------------------------|
--------------------------------------|
--------------------------------------|
--5S---(x)-5h--6p--5--2h--3p--2--2----|
--------------------------------------|
--------------------------------------|


   |---3--|   |--3--|
   E   E  E   E  E  E  H
--------------------------------|
--------------------------------|
-------------12--9--------------|
----------9---------9--7--------|
------10------------------------|
--12----------------------------|


       |---3---|
  Q    E   E   E  H
---------------------------|
---------------------------|
---------------------------|
--L----7h--9p--7--5--------|
---------------------------|
---------------------------|


   |---3--|   |--3--|
   E   E  E   E  E  E  H
--------------------------------|
--------------------------------|
-------------12--9--------------|
----------9---------9--7--------|
------10------------------------|
--12----------------------------|


      PM PM PM PM  PM  PM
      |--3--|  |---3---|
  E.  E  E  E  E   E   E  S Q
---------------------------------|
---------------------------------|
---------9-----7-----------------|
--L--------------------9---------|
------7-----7-----(7)-----7-L----|
---------------------------------|


   |---3--|   |--3--|
   E   E  E   E  E  E  H
--------------------------------|
--------------------------------|
-------------12--9--------------|
----------9---------9--7--------|
------10------------------------|
--12----------------------------|


       |---3---|
  Q    E   E   E  H
---------------------------|
---------------------------|
---------------------------|
--L----7h--9p--7--9--------|
---------------------------|
---------------------------|


   |---3--|   |--3--|
   E   E  E   E  E  E  H
--------------------------------|
--------------------------------|
-------------12--9--------------|
----------9---------9--7--------|
------10------------------------|
--12----------------------------|


      PM PM PM PM  PM  PM
      |--3--|  |---3---|
  E.  E  E  E  E   E   E  S Q
---------------------------------|
---------------------------------|
---------9-----7-----------------|
--L--------------------9---------|
------7-----7-----(7)-----7-L----|
---------------------------------|


   |---3--|   |--3--|
   E   E  E   E  E  E  H
--------------------------------|
--------------------------------|
-------------12--9--------------|
----------9---------9--7--------|
------10------------------------|
--12----------------------------|


       |---3---|
  Q    E   E   E  H
---------------------------|
---------------------------|
---------------------------|
--L----7h--9p--7--5--------|
---------------------------|
---------------------------|


   |---3--|   |--3--|
   E   E  E   E  E  E  H
--------------------------------|
--------------------------------|
-------------12--9--------------|
----------9---------9--7--------|
------10------------------------|
--12----------------------------|


                       PM   PM
       |----3---|  |----3---|
  E.   E    E   E  E   E    E    S  Q
-----------------------------------------|
-----------------------------------------|
-----------------------------------------|
--L----L--(10)--L--L--(9)--(7)--(9)-L----|
-----------------------------------------|
-----------------------------------------|


   |---3--|   |--3--|
   E   E  E   E  E  E  H
--------------------------------|
--------------------------------|
-------------12--9--------------|
----------9---------9--7--------|
------10------------------------|
--12----------------------------|


       |---3---|
  Q    E   E   E  H
---------------------------|
---------------------------|
---------------------------|
--L----7h--9p--7--9--------|
---------------------------|
---------------------------|


   |---3--|   |--3--|
   E   E  E   E  E  E  H
--------------------------------|
--------------------------------|
-------------12--9--------------|
----------9---------9--7--------|
------10------------------------|
--12----------------------------|


                       PM   PM
       |----3---|  |----3---|
  E.   E    E   E  E   E    E    S  Q
-----------------------------------------|
-----------------------------------------|
-----------------------------------------|
--L----L--(10)--L--L--(9)--(7)--(9)-L----|
-----------------------------------------|
-----------------------------------------|


  PM PM          PM PM     PM PM
  S  S  S E.  E  S  S  S S S  S  S S
-------------------------------------|
-------------------------------------|
-------------------------------------|
-------------------------------------|
-------------------------------------|
--2--2-----------2--2------2--2----3-|


        PM PM
  E  E  S  S  S S E.  E.  E
-----------------------------|
-----------------------------|
-----------------------------|
--------------------------1--|
------------------4---2---1--|
--L--2--2--2------2---0------|


  PM PM          PM PM     PM PM
  S  S  S E.  E  S  S  S S S  S  S  S
--------------------------------------|
--------------------------------------|
--------------------------------------|
--------------------------------------|
----------5---4--------------------/5-|
--2--2-----------2--2------2--2----/5-|


        PM PM   PM
  E  E  S  S  S S    H
-------------------------------|
-------------------------------|
-------------------------------|
-------------------------------|
--L--7-------------------------|
--L--7--2--2----2--<>3~--------|


  PM PM          PM PM     PM PM
  S  S  S E.  E  S  S  S S S  S  S S
-------------------------------------|
-------------------------------------|
-------------------------------------|
-------------------------------------|
----------5---4----------------------|
--2--2-----------2--2------2--2----3-|


        PM PM
  E  E  S  S  S S E.  E.  E
-----------------------------|
-----------------------------|
-----------------------------|
--------------------------1--|
------------------4---2---1--|
--L--2--2--2------2---0------|


  PM PM
                 |--3--|  |--3--|
  S  S  S E.  E  E  E  E  E  E  E
-----------------------------------|
-----------------------------------|
-----------------------------------|
-----------------------------------|
----------5---4--------------------|
--2--2-----------5--5--5--7--7--7--|


  Q     E  E  E.  E.  E
-------------------------|
-------------------------|
-------------------------|
-------------------------|
------------------5------|
--0----/7--0--5-------2--|


  PM PM          PM PM     PM PM
  S  S  S E.  E  S  S  S S S  S  S S
-------------------------------------|
-------------------------------------|
-------------------------------------|
-------------------------------------|
----------5---4----------------------|
--2--2-----------2--2------2--2----3-|


        PM PM
  E  E  S  S  S S E.  E.  E
-----------------------------|
-----------------------------|
-----------------------------|
--------------------------1--|
------------------4---2---1--|
--L--2--2--2------2---0------|


  PM PM          PM PM     PM PM
  S  S  S E.  E  S  S  S S S  S  S  S
--------------------------------------|
--------------------------------------|
--------------------------------------|
--------------------------------------|
----------5---4--------------------/5-|
--2--2-----------2--2------2--2----/5-|


        PM PM   PM
  E  E  S  S  S S    H
-------------------------------|
-------------------------------|
-------------------------------|
-------------------<>6~--------|
--L--7-------------------------|
--L--7--2--2----2--------------|


  PM PM          PM PM     PM PM
  S  S  S E.  E  S  S  S S S  S  S S
-------------------------------------|
-------------------------------------|
-------------------------------------|
-------------------------------------|
----------5---4----------------------|
--2--2-----------2--2------2--2----3-|


        PM PM
  E  E  S  S  S S E.  E.  E
-----------------------------|
-----------------------------|
-----------------------------|
--------------------------1--|
------------------4---2---1--|
--L--2--2--2------2---0------|


  PM PM
                 |--3--|  |--3--|
  S  S  S E.  E  E  E  E  E  E  E
-----------------------------------|
-----------------------------------|
-----------------------------------|
-----------------------------------|
----------5---4--------------------|
--2--2-----------5--5--5--7--7--7--|


  Q     E  E  E.  E.  E
-------------------------|
-------------------------|
-------------------------|
-------------------------|
------------------5------|
--0----/7--0--5-------2--|


             PM PM            PM PM
  S  S  S  S S  S  S  S  S  S S  S  S  S  S
---------------------------------------------|
---------------------------------------------|
---------------------------------------------|
---------------------------------------------|
--2h-5p-2h-5-------2h-3p-2h-3-------2h-5p-2h-|
-------------2--2-------------2--2-----------|


    SHPM PM PM PM PM   PM PM PM PM PM
    S S  S  S  S  S  S S  S  S  S  S  Q
-------------------------------------------|
-------------------------------------------|
-------------------------------------------|
--------------------------------------5----|
--<>2---------------------------------3----|
------2--2--2--2--2----2--2--2--2--2--3----|


             PM PM            PM PM
  S  S  S  S S  S  S  S  S  S S  S  S  S  S
---------------------------------------------|
---------------------------------------------|
---------------------------------------------|
---------------------------------------------|
--2h-5p-2h-5-------2h-3p-2h-3-------2h-5p-2h-|
-------------2--2-------------2--2-----------|


    SHPM PM PM PM PM PM PM
    S S  S  S  S  S  S  S  Q    Q
-------------------------------------|
-------------------------------------|
-------------------------------------|
---------------------------5----8----|
--<>2----------------------3----6----|
------2--2--2--2--2--2--2--3----6----|


             PM PM            PM PM
  S  S  S  S S  S  S  S  S  S S  S  S  S  S
---------------------------------------------|
---------------------------------------------|
---------------------------------------------|
---------------------------------------------|
--2h-5p-2h-5-------2h-3p-2h-3-------2h-5p-2h-|
-------------2--2-------------2--2-----------|


    SHPM PM PM PM PM   PM PM PM PM PM
    S S  S  S  S  S  S S  S  S  S  S  Q
-------------------------------------------|
-------------------------------------------|
-------------------------------------------|
--------------------------------------5----|
--<>2---------------------------------3----|
------2--2--2--2--2----2--2--2--2--2--3----|


             PM PM            PM PM
  S  S  S  S S  S  S  S  S  S S  S  S  S  S
---------------------------------------------|
---------------------------------------------|
---------------------------------------------|
---------------------------------------------|
--2h-5p-2h-5-------2h-3p-2h-3-------2h-5p-2h-|
-------------2--2-------------2--2-----------|


    SHPM PM PM PM PM PM PM
    S S  S  S  S  S  S  S  Q    Q
-------------------------------------|
-------------------------------------|
-------------------------------------|
---------------------------5----8----|
--<>2----------------------3----6----|
------2--2--2--2--2--2--2--3----6----|


             PM PM            PM PM
  S  S  S  S S  S  S  S  S  S S  S  S  S  S
---------------------------------------------|
---------------------------------------------|
---------------------------------------------|
---------------------------------------------|
--2h-5p-2h-5-------2h-3p-2h-3-------2h-5p-2h-|
-------------2--2-------------2--2-----------|


    SHPM PM PM PM PM   PM PM PM PM PM
    S S  S  S  S  S  S S  S  S  S  S  Q
-------------------------------------------|
-------------------------------------------|
-------------------------------------------|
--------------------------------------5----|
--<>2---------------------------------3----|
------2--2--2--2--2----2--2--2--2--2--3----|


             PM PM            PM PM
  S  S  S  S S  S  S  S  S  S S  S  S  S  S
---------------------------------------------|
---------------------------------------------|
---------------------------------------------|
---------------------------------------------|
--2h-5p-2h-5-------2h-3p-2h-3-------2h-5p-2h-|
-------------2--2-------------2--2-----------|


    SHPM PM PM PM PM PM PM
    S S  S  S  S  S  S  S  Q    Q
-------------------------------------|
-------------------------------------|
-------------------------------------|
---------------------------5----8----|
--<>2----------------------3----6----|
------2--2--2--2--2--2--2--3----6----|


             PM PM            PM PM
  S  S  S  S S  S  S  S  S  S S  S  S  S  S
---------------------------------------------|
---------------------------------------------|
---------------------------------------------|
---------------------------------------------|
--2h-5p-2h-5-------2h-3p-2h-3-------2h-5p-2h-|
-------------2--2-------------2--2-----------|


    SHPM PM PM PM PM   PM PM PM PM PM
    S S  S  S  S  S  S S  S  S  S  S  Q
-------------------------------------------|
-------------------------------------------|
-------------------------------------------|
--------------------------------------5----|
--<>2---------------------------------3----|
------2--2--2--2--2----2--2--2--2--2--3----|


             PM PM            PM PM
  S  S  S  S S  S  S  S  S  S S  S  S  S  S
---------------------------------------------|
---------------------------------------------|
---------------------------------------------|
---------------------------------------------|
--2h-5p-2h-5-------2h-3p-2h-3-------2h-5p-2h-|
-------------2--2-------------2--2-----------|


    SHPM PM PM PM PM PM PM
    S S  S  S  S  S  S  S  Q    Q
-------------------------------------|
-------------------------------------|
-------------------------------------|
---------------------------5----8----|
--<>2----------------------3----6----|
------2--2--2--2--2--2--2--3----6----|


       PM PM
  Q    E  E  E  E  Q
------------------------|
------------------------|
-------------------3----|
------------------------|
--2----------2----------|
--2----2--3--2----------|


                  PM PM
  E  E  Q    Q    E  E
------------------------|
------------------------|
------------------------|
--1--2------------------|
--------1----2----------|
------------------1--4--|


  PM PM
  E  E  S  S  S  S E  E  E  E
-------------------------------|
-------------------------------|
-------------------------------|
-------------------------1--0--|
--3--2--1h-2p-1h-2----2--------|
-------------------4-----------|


  E  E  Q    Q      Q
-------------------------|
--------3----2br---------|
--------------------2----|
--1--5-------------------|
-------------------------|
-------------------------|


          PM PM
  Q.      E  E  Q.
-----------------------|
-----------------------|
-----------------------|
--5~-------------------|
----------------3------|
----------3--3--3------|


       PM PM
  Q    E  E  E  E  Q
------------------------|
------------------------|
-------------------3----|
------------------------|
--2----------2----------|
--2----2--3--2----------|


                  PM PM
  E  E  Q    Q    E  E
------------------------|
------------------------|
------------------------|
--1--2------------------|
--------1----2----------|
------------------1--4--|


  PM PM
  E  E  S  S  S  S E  E  E  E
-------------------------------|
-------------------------------|
-------------------------------|
-------------------------1--0--|
--3--2--1h-2p-1h-2----2--------|
-------------------4-----------|


  E  E  Q    Q      Q    Q
-------------------------------|
--------3----2br---------------|
--------------------2----------|
--1--5-------------------5\----|
-------------------------------|
-------------------------------|


       PM PM
  Q    E  E  E  E  Q
------------------------|
------------------------|
-------------------3----|
------------------------|
--2----------2----------|
--2----2--3--2----------|


                  PM PM
  E  E  Q    Q    E  E
------------------------|
------------------------|
------------------------|
--1--2------------------|
--------1----2----------|
------------------1--4--|


  PM PM
  E  E  S  S  S  S E  E  E  E
-------------------------------|
-------------------------------|
-------------------------------|
-------------------------1--0--|
--3--2--1h-2p-1h-2----2--------|
-------------------4-----------|


  E  E  Q    Q      Q
-------------------------|
--------3----2br---------|
--------------------2----|
--1--5-------------------|
-------------------------|
-------------------------|


    SH
    W.
---------------------|
---------------------|
---------------------|
--<>5----------------|
---------------------|
---------------------|


  PM PM PM PM PM PM PM PM PM PM PM PM PM PM P
  S  S  S  S  S  S  S  S  S  S  S  S  S  S  S
----------------------------------------------|
----------------------------------------------|
----------------------------------------------|
----------------------------------------------|
----------------------------------------------|
--4--1--0--1--0--1--4--1--0--1--0--1--4--1--0-|


  PM PM PM PM PM PM PM PM PM PM PM PM PM PM P
  S  S  S  S  S  S  S  S  S  S  S  S  S  S  S
----------------------------------------------|
----------------------------------------------|
----------------------------------------------|
----------------------------------------------|
----------------------------------------------|
--2--1--0--1--0--1--4--1--0--1--0--1--4--4--4-|


  PM PM PM PM PM PM PM PM PM PM PM PM PM PM P
  S  S  S  S  S  S  S  S  S  S  S  S  S  S  S
----------------------------------------------|
----------------------------------------------|
----------------------------------------------|
----------------------------------------------|
----------------------------------------------|
--4--1--0--1--0--1--4--1--0--1--0--1--4--1--0-|


  PM PM PM PM PM PM PM PM PM PM PM PM
  S  S  S  S  S  S  S  S  S  S  S  S  S  E.
---------------------------------------------|
---------------------------------------------|
---------------------------------------------|
---------------------------------------------|
--------------------------------------5S-6---|
--2--1--0--1--0--1--4--1--0--1--0--1--3S-4---|


  PM PM PM PM PM PM PM PM PM PM PM PM PM PM P
  S  S  S  S  S  S  S  S  S  S  S  S  S  S  S
----------------------------------------------|
----------------------------------------------|
----------------------------------------------|
----------------------------------------------|
----------------------------------------------|
--4--1--0--1--0--1--4--1--0--1--0--1--4--1--0-|


  PM PM PM PM PM PM PM PM PM PM PM PM PM PM P
  S  S  S  S  S  S  S  S  S  S  S  S  S  S  S
----------------------------------------------|
----------------------------------------------|
----------------------------------------------|
----------------------------------------------|
----------------------------------------------|
--2--1--0--1--0--1--4--1--0--1--0--1--4--4--4-|


  PM PM PM PM PM PM PM PM PM PM PM PM PM PM P
  S  S  S  S  S  S  S  S  S  S  S  S  S  S  S
----------------------------------------------|
----------------------------------------------|
----------------------------------------------|
----------------------------------------------|
----------------------------------------------|
--4--1--0--1--0--1--4--1--0--1--0--1--4--1--0-|


  PM PM PM PM PM PM PM PM PM PM PM PM
  S  S  S  S  S  S  S  S  S  S  S  S  S  E.
---------------------------------------------|
---------------------------------------------|
---------------------------------------------|
---------------------------------------------|
--------------------------------------5S-6---|
--2--1--0--1--0--1--4--1--0--1--0--1--3S-4---|


  PM PM PM PM         PM PM PM PM     PM PM
  S  S  S  S  S S S S S  S  S  S  S S S  S
--------------------------------------------|
--------------------------------------------|
--------------------------------------------|
--------------------------------------------|
--------------7-8-7---------------5-3-------|
--0--0--0--0--------9-0--0--0--0------4--3--|


  PM PM PM PM         PM PM
  S  S  S  S  S S S S S  S  Q    E
------------------------------------|
------------------------------------|
------------------------------------|
----------------------------7----8--|
--------------7-8-7---------5----6--|
--0--0--0--0--------9-0--0--5----6--|


  PM PM PM PM         PM PM PM PM     PM PM
  S  S  S  S  S S S S S  S  S  S  S S S  S
--------------------------------------------|
--------------------------------------------|
--------------------------------------------|
--------------------------------------------|
--------------7-8-7---------------5-3-------|
--0--0--0--0--------9-0--0--0--0------4--3--|


  PM PM
  S  S  E.  E.  Q    E  E
---------------------------|
---------------------------|
---------------------------|
--------6---5---8----8--8--|
--------6---5---8----8--8--|
--0--0--4---3---6----6--6--|


  PM PM PM PM         PM PM PM PM     PM PM
  S  S  S  S  S S S S S  S  S  S  S S S  S
--------------------------------------------|
--------------------------------------------|
--------------------------------------------|
--------------------------------------------|
--------------7-8-7---------------5-3-------|
--0--0--0--0--------9-0--0--0--0------4--3--|


  PM PM PM PM         PM PM
  S  S  S  S  S S S S S  S  Q    E
------------------------------------|
------------------------------------|
------------------------------------|
----------------------------7----8--|
--------------7-8-7---------5----6--|
--0--0--0--0--------9-0--0--5----6--|


  PM PM PM PM         PM PM PM PM     PM PM
  S  S  S  S  S S S S S  S  S  S  S S S  S
--------------------------------------------|
--------------------------------------------|
--------------------------------------------|
--------------------------------------------|
--------------7-8-7---------------5-3-------|
--0--0--0--0--------9-0--0--0--0------4--3--|


  PM PM
  S  S  E.  E.  Q    E  E
---------------------------|
---------------------------|
---------------------------|
--------6---5---8----8--8--|
--------6---5---8----8--8--|
--0--0--4---3---6----6--6--|


  PM PM PM PM         PM PM PM PM     PM PM
  S  S  S  S  S S S S S  S  S  S  S S S  S
--------------------------------------------|
--------------------------------------------|
--------------------------------------------|
--------------------------------------------|
--------------7-8-7---------------5-3-------|
--0--0--0--0--------9-0--0--0--0------4--3--|


  PM PM PM PM         PM PM
  S  S  S  S  S S S S S  S  Q    E
------------------------------------|
------------------------------------|
------------------------------------|
----------------------------7----8--|
--------------7-8-7---------5----6--|
--0--0--0--0--------9-0--0--5----6--|


  PM PM PM PM         PM PM PM PM     PM PM
  S  S  S  S  S S S S S  S  S  S  S S S  S
--------------------------------------------|
--------------------------------------------|
--------------------------------------------|
--------------------------------------------|
--------------7-8-7---------------5-3-------|
--0--0--0--0--------9-0--0--0--0------4--3--|


  PM PM
  S  S  E.  E.  Q    E  E
---------------------------|
---------------------------|
---------------------------|
--------6---5---8----8--8--|
--------6---5---8----8--8--|
--0--0--4---3---6----6--6--|


  PM PM PM PM         PM PM PM PM     PM PM
  S  S  S  S  S S S S S  S  S  S  S S S  S
--------------------------------------------|
--------------------------------------------|
--------------------------------------------|
--------------------------------------------|
--------------7-8-7---------------5-3-------|
--0--0--0--0--------9-0--0--0--0------4--3--|


  PM PM PM PM         PM PM
  S  S  S  S  S S S S S  S  Q    E
------------------------------------|
------------------------------------|
------------------------------------|
----------------------------7----8--|
--------------7-8-7---------5----6--|
--0--0--0--0--------9-0--0--5----6--|


  PM PM PM PM         PM PM PM PM     PM PM
  S  S  S  S  S S S S S  S  S  S  S S S  S
--------------------------------------------|
--------------------------------------------|
--------------------------------------------|
--------------------------------------------|
--------------7-8-7---------------5-3-------|
--0--0--0--0--------9-0--0--0--0------4--3--|


  PM PM
                |----3----|
  S  S  E.  E.  Q    Q    Q
-------------------------------|
-------------------------------|
-------------------------------|
--------6---5---8----8----8----|
--------6---5---8----8----8----|
--0--0--4---3---6----6----6----|


  PM PM PM PM PM PM PM PM
                          |----3----|
  S  S  S  S  S  S  S  S  Q    Q    Q
------------------------------------------|
------------------------------------------|
------------------------------------------|
------------------------------------------|
--------------------------1----1----1S----|
--1--1--1--1--0--0--0--0--1----1----1S----|


  E  E  H.
---------------------||
---------------------||
---------------------||
---------------------||
--L--x---------------||
--L--x---------------||

            Atrocity Evolution


                                       Amoral
Guitar (7-string)




     PM PM PM PM         PM PM PM PM     PM P
     S  S  S  S  S S S S S  S  S  S  S S S  S
E||-------------------------------------------|
B||-------------------------------------------|
G||-------------------------------------------|
D||-------------------------------------------|
A||--------------7-8-7---------------5-3------|
E||--0--0--0--0--------9-0--0--0--0------4--3-|
B||-------------------------------------------|


  PM PM PM PM         PM PM
  S  S  S  S  S S S S S  S  Q    E
------------------------------------|
------------------------------------|
------------------------------------|
------------------------------------|
--------------7-8-7---------5----6--|
--0--0--0--0--------9-0--0--5----6--|
----------------------------3----4--|


  PM PM PM PM         PM PM PM PM     PM PM
  S  S  S  S  S S S S S  S  S  S  S S S  S
--------------------------------------------|
--------------------------------------------|
--------------------------------------------|
--------------------------------------------|
--------------7-8-7---------------5-3-------|
--0--0--0--0--------9-0--0--0--0------4--3--|
--------------------------------------------|


  PM PM
  S  S  E.  E.  Q    E  E
---------------------------|
---------------------------|
---------------------------|
--------6---5---8----8--8--|
--------6---5---8----8--8--|
--0--0--4---3---6----6--6--|
---------------------------|


  PM PM PM PM         PM PM PM PM     PM PM
  S  S  S  S  S S S S S  S  S  S  S S S  S
--------------------------------------------|
--------------------------------------------|
--------------------------------------------|
--------------------------------------------|
--------------7-8-7---------------5-3-------|
--0--0--0--0--------9-0--0--0--0------4--3--|
--------------------------------------------|


  PM PM PM PM         PM PM
  S  S  S  S  S S S S S  S  Q    E
------------------------------------|
------------------------------------|
------------------------------------|
----------------------------7----8--|
--------------7-8-7---------5----6--|
--0--0--0--0--------9-0--0--5----6--|
------------------------------------|

[ Tab from: http://www.guitaretab.com/a/amoral/110816.html ]
  PM PM PM PM         PM PM PM PM     PM PM
  S  S  S  S  S S S S S  S  S  S  S S S  S
--------------------------------------------|
--------------------------------------------|
--------------------------------------------|
--------------------------------------------|
--------------7-8-7---------------5-3-------|
--0--0--0--0--------9-0--0--0--0------4--3--|
--------------------------------------------|


  PM PM
  S  S  E.  E.  Q    E  E
---------------------------|
---------------------------|
---------------------------|
--------6---5---8----8--8--|
--------6---5---8----8--8--|
--0--0--4---3---6----6--6--|
---------------------------|


  PM PM PM PM         PM PM PM PM     PM PM
  S  S  S  S  S S S S S  S  S  S  S S S  S
--------------------------------------------|
--------------------------------------------|
--------------------------------------------|
--------------------------------------------|
--------------7-8-7---------------5-3-------|
--0--0--0--0--------9-0--0--0--0------4--3--|
--------------------------------------------|


  PM PM PM PM         PM PM
  S  S  S  S  S S S S S  S  Q    E
------------------------------------|
------------------------------------|
------------------------------------|
------------------------------------|
--------------7-8-7---------5----6--|
--0--0--0--0--------9-0--0--5----6--|
----------------------------3----4--|


  PM PM PM PM         PM PM PM PM     PM PM
  S  S  S  S  S S S S S  S  S  S  S S S  S
--------------------------------------------|
--------------------------------------------|
--------------------------------------------|
--------------------------------------------|
--------------7-8-7---------------5-3-------|
--0--0--0--0--------9-0--0--0--0------4--3--|
--------------------------------------------|


  PM PM
  S  S  E.  E.  Q    E  E
---------------------------|
---------------------------|
---------------------------|
--------6---5---8----8--8--|
--------6---5---8----8--8--|
--0--0--4---3---6----6--6--|
---------------------------|


  PM PM PM PM         PM PM PM PM     PM PM
  S  S  S  S  S S S S S  S  S  S  S S S  S
--------------------------------------------|
--------------------------------------------|
--------------------------------------------|
--------------------------------------------|
--------------7-8-7---------------5-3-------|
--0--0--0--0--------9-0--0--0--0------4--3--|
--------------------------------------------|


  PM PM PM PM         PM PM
  S  S  S  S  S S S S S  S  Q    E
------------------------------------|
------------------------------------|
------------------------------------|
----------------------------7----8--|
--------------7-8-7---------5----6--|
--0--0--0--0--------9-0--0--5----6--|
------------------------------------|


  PM PM PM PM         PM PM PM PM     PM PM
  S  S  S  S  S S S S S  S  S  S  S S S  S
--------------------------------------------|
--------------------------------------------|
--------------------------------------------|
--------------------------------------------|
--------------7-8-7---------------5-3-------|
--0--0--0--0--------9-0--0--0--0------4--3--|
--------------------------------------------|


  PM PM
  S  S  E.  E.  Q    E  E
---------------------------|
---------------------------|
---------------------------|
--------6---5---8----8--8--|
--------6---5---8----8--8--|
--0--0--4---3---6----6--6--|
---------------------------|


  PM            PM PM   PM PM
  E  S   E.  E  S  E  S S  E   S
---------------------------------|
---------------------------------|
---------------------------------|
---------------------------------|
---------------------------------|
-------/10---9----------------/3-|
--0-------------0--0----0--0-----|


        PM PM
  E  E  S  E  S E.  E.  E
---------------------------|
---------------------------|
---------------------------|
---------------------------|
---------------------------|
--L--2----------2----------|
--------0--0--------5---4--|


  PM            PM PM   PM PM
  E  S   E.  E  S  E  S S  E   S
---------------------------------|
---------------------------------|
---------------------------------|
---------------------------------|
------------------------------/5-|
-------/10---9----------------/5-|
--0-------------0--0----0--0-----|


        PM PM   PM
  E  E  S  S  S S  H
-----------------------------|
-----------------------------|
-----------------------------|
-----------------------------|
--L--7-------------5~--------|
--L--7-----------------------|
--------0--0----0------------|


  PM           PM PM   PM PM
  E  S  E.  E  S  E  S S  E   S
--------------------------------|
--------------------------------|
--------------------------------|
--------------------------------|
--------------------------------|
-----------------------------/3-|
--0----/7---6--0--0----0--0-----|


        PM PM
  E  E  S  E  S E.  E.  E
---------------------------|
---------------------------|
---------------------------|
---------------------------|
---------------------------|
--L--2----------2----------|
--------0--0--------5---4--|


  PM           PM PM PM PM PM PM
               |--3--|  |--3--|
  E  S  E.  E  E  E  E  E  E  E
---------------------------------|
---------------------------------|
---------------------------------|
---------------------------------|
---------------------------------|
-------/7---5--5--5--5--7--7--7--|
--0------------------------------|


  Q     E   E  E.  E.  E
--------------------------|
--------------------------|
--------------------------|
--------------------------|
-------------------5------|
--0----/7~--0--5-------2--|
--------------------------|


  PM             PM   PM PM
  E  S  E.  E  S E  S S  E   S
-------------------------------|
-------------------------------|
-------------------------------|
-------------------------------|
-------------------------------|
----------------------------/3-|
--0----/7---6--0-0----0--0-----|


        PM PM
  E  E  S  E  S E.  E.  E
---------------------------|
---------------------------|
---------------------------|
---------------------------|
---------------------------|
--L--2----------2----------|
--------0--0--------5---4--|


  PM            PM    PM PM
  E  S   E.  E  E  E  S  E   S
-------------------------------|
-------------------------------|
-------------------------------|
-------------------------------|
----------------------------/5-|
-------/10---9--------------/5-|
--0-------------0-----0--0-----|


        PM PM   PM   SH
  E  E  S  S  S S    H
-------------------------------|
-------------------------------|
-------------------------------|
-------------------------------|
--L--7-------------------------|
--L--7-------------<>4~--------|
--------0--0----0--------------|


  PM            PM   PM PM
  E  S E.  E  S E  S S  E   S
------------------------------|
------------------------------|
------------------------------|
------------------------------|
------------------------------|
-------5---4---------------/7-|
--0----3---2--0-0----0--0--/5-|


        PM PM
  E  E  S  E  S E.  E.  E
---------------------------|
---------------------------|
---------------------------|
---------------------------|
---------------------------|
--L--5----------9---7---6--|
--L--3--0--0----7---5---4--|


  PM           PM PM PM PM PM PM
               |--3--|  |--3--|
  E  S  E.  E  E  E  E  E  E  E
---------------------------------|
---------------------------------|
---------------------------------|
---------------------------------|
---------------------------------|
-------/7---5--5--5--5--7--7--7--|
--0------------------------------|


  Q     E   E  E.  E.  E
--------------------------|
--------------------------|
--------------------------|
--------------------------|
-------------------5------|
--0----/7~--0--5-------2--|
--------------------------|


  PM
  Q    H.              W
--------------------|-------------------|
--------------------|-------------------|
--------------------|-------------------|
--------------------|-------------------|
--------------------|-------------------|
--------------------|-------------------|
--0-----------------|-------------------|


  W                   W
-------------------|-------------------|
-------------------|-------------------|
-------------------|-------------------|
-------------------|-------------------|
-------------------|-------------------|
-------------------|-------------------|
-------------------|-------------------|


  W                   W
-------------------|-------------------|
-------------------|-------------------|
-------------------|-------------------|
--4----------------|--L----------------|
--2----------------|--L----------------|
--2----------------|--L----------------|
--0----------------|--L----------------|


  PM PM
  S  E  S H.
-----------------------|
-----------------------|
-----------------------|
-----------------------|
--2--2-----------------|
-----------------------|
-----------------------|


    PM PM PM PM PM   PM
  S S  S  S  S  S  S S  Q    Q
----------------------------------|
----------------------------------|
----------------------------------|
----------------------------------|
------------------------3----6----|
------------------------3----6----|
----0--0--0--0--0----0--1----4----|


         PM PM           PM PM
   Q     S  S  S  S S  S S  S  S  S S  S
-----------------------------------------|
-----------------------------------------|
-----------------------------------------|
-----------------------------------------|
--(5)------------------------------------|
--(5)------------------------------------|
--(3)----0--0--0h-1-0h-1-0--0--0h-3-0h-3-|


    PM PM PM PM PM   PM PM PM PM PM
  S S  S  S  S  S  S S  S  S  S  S  Q
-----------------------------------------|
-----------------------------------------|
-----------------------------------------|
-----------------------------------------|
------------------------------------3----|
------------------------------------3----|
--0-0--0--0--0--0----0--0--0--0--0--1----|


            PM PM           PM PM
  S  S S  S S  S  S  S S  S S  S  S  S S  S
--------------------------------------------|
--------------------------------------------|
--------------------------------------------|
--------------------------------------------|
--------------------------------------------|
--------------------------------------------|
--0h-3-0h-3-0--0--0h-1-0h-1-0--0--0h-3-0h-3-|


    PM PM PM PM PM PM PM
  S S  S  S  S  S  S  S  Q    Q
-----------------------------------|
-----------------------------------|
-----------------------------------|
-----------------------------------|
-------------------------3----6----|
-------------------------3----6----|
--0-0--0--0--0--0--0--0--1----4----|


            PM PM           PM PM
  S  S S  S S  S  S  S S  S S  S  S  S S  S
--------------------------------------------|
--------------------------------------------|
--------------------------------------------|
--------------------------------------------|
--------------------------------------------|
--------------------------------------------|
--0h-3-0h-3-0--0--0h-1-0h-1-0--0--0h-3-0h-3-|


    PM PM PM PM PM   PM PM PM PM PM
  S S  S  S  S  S  S S  S  S  S  S  Q
-----------------------------------------|
-----------------------------------------|
-----------------------------------------|
-----------------------------------------|
------------------------------------3----|
------------------------------------3----|
--0-0--0--0--0--0----0--0--0--0--0--1----|


            PM PM           PM PM
  S  S S  S S  S  S  S S  S S  S  S  S S  S
--------------------------------------------|
--------------------------------------------|
--------------------------------------------|
--------------------------------------------|
--------------------------------------------|
--------------------------------------------|
--0h-3-0h-3-0--0--0h-1-0h-1-0--0--0h-3-0h-3-|


    PM PM PM PM PM PM PM
  S S  S  S  S  S  S  S  Q    Q
-----------------------------------|
-----------------------------------|
-----------------------------------|
-----------------------------------|
-------------------------3----6----|
-------------------------3----6----|
--0-0--0--0--0--0--0--0--1----4----|


            PM PM           PM PM
  S  S S  S S  S  S  S S  S S  S  S  S S  S
--------------------------------------------|
--------------------------------------------|
--------------------------------------------|
--------------------------------------------|
------------------2h-3-2h-3-----------------|
--------------------------------------------|
--0h-3-0h-3-0--0------------0--0--0h-3-0h-3-|


    PM PM PM PM PM   PM PM PM PM PM
  S S  S  S  S  S  S S  S  S  S  S  Q
-----------------------------------------|
-----------------------------------------|
-----------------------------------------|
-----------------------------------------|
------------------------------------3----|
------------------------------------3----|
--0-0--0--0--0--0----0--0--0--0--0--1----|


            PM PM           PM PM
  S  S S  S S  S  S  S S  S S  S  S  S S  S
--------------------------------------------|
--------------------------------------------|
--------------------------------------------|
--------------------------------------------|
--------------------------------------------|
--------------------------------------------|
--0h-3-0h-3-0--0--0h-1-0h-1-0--0--0h-3-0h-3-|


    PM PM PM PM PM PM PM
  S S  S  S  S  S  S  S  Q    Q
-----------------------------------|
-----------------------------------|
-----------------------------------|
-----------------------------------|
-------------------------3----6----|
-------------------------3----6----|
--0-0--0--0--0--0--0--0--1----4----|


            PM PM           PM PM
  S  S S  S S  S  S  S S  S S  S  S  S S  S
--------------------------------------------|
--------------------------------------------|
--------------------------------------------|
--------------------------------------------|
--------------------------------------------|
--------------------------------------------|
--0h-3-0h-3-0--0--0h-1-0h-1-0--0--0h-3-0h-3-|


    PM PM PM PM PM   PM PM PM PM PM
  S S  S  S  S  S  S S  S  S  S  S  Q
-----------------------------------------|
-----------------------------------------|
-----------------------------------------|
-----------------------------------------|
------------------------------------3----|
------------------------------------3----|
--0-0--0--0--0--0----0--0--0--0--0--1----|


            PM PM           PM PM
  S  S S  S S  S  S  S S  S S  S  S  S S  S
--------------------------------------------|
--------------------------------------------|
--------------------------------------------|
--------------------------------------------|
--------------------------------------------|
--------------------------------------------|
--0h-3-0h-3-0--0--0h-1-0h-1-0--0--0h-3-0h-3-|


    PM PM PM PM PM PM PM
  S S  S  S  S  S  S  S  Q    Q
-----------------------------------|
-----------------------------------|
-----------------------------------|
-----------------------------------|
-------------------------3----6----|
-------------------------3----6----|
--0-0--0--0--0--0--0--0--1----4----|


   PM            PM   PM PM   PM PM
   E   E  Q.     S  S S  S  S S  S  E.
----------------------------------------|
----------------------------------------|
----------------------------------------|
----------5-----------------------------|
----------5------2----2--2----2--2------|
--(0)------------0----0--0----0--0------|
----------------------------------------|


         PM PM PM PM PM PM PM PM PM PM
  Q.     S  S  S  S  S  S  S  S  S  S
---------------------------------------|
---------------------------------------|
--9------------------------------------|
------------------6--7--9--7--6-----7--|
--7------5--6--7-----------------7-----|
---------------------------------------|
---------------------------------------|


  PM PM PM      PM   PM PM   PM PM
  S  S  S  E.   S  S S  S  S S  S  E.
---------------------------------------|
---------------------------------------|
---------------------------------------|
--6--6---------------------------------|
--------6--7S---2----2--2----2--2------|
----------------0----0--0----0--0------|
---------------------------------------|


         PM PM PM PM PM PM PM PM PM PM
  Q.     S  S  S  S  S  S  S  S  S  S
---------------------------------------|
---------------------------------------|
--9------------------------------------|
------------------6--7--9--7--6--------|
--7------5--6--7-----------------7--6--|
---------------------------------------|
---------------------------------------|


  PM PM PM PM           PM PM PM PM
                        |--3--|
  S  S  S  S  Q    Q    S  S  S  S  S
--------------------------------------|
--------------------------------------|
--------------------------------------|
--------------------------------------|
--5---------------------7--7--7--7----|
-----8--7--5s-1----4----0--0--0--0----|
--------------------------------------|


  PM PM PM PM          PM   PM PM   PM PM
  |--3--|
  S  S  S  S  S Q.     S  S S  S  S S  S  E.
---------------------------------------------|
---------------------------------------------|
---------------------------------------------|
----------------5----------------------------|
--7--7--7--7----5------2----2--2----2--2-----|
--0--0--0--0-----------0----0--0----0--0-----|
---------------------------------------------|


         PM PM PM PM PM PM PM PM PM PM
  Q.     S  S  S  S  S  S  S  S  S  S
---------------------------------------|
---------------------------------------|
---------------------------------------|
---------------------------------------|
--7------------------------------------|
--7---------------4--5--7--5--4-----5--|
---------3--4--5-----------------5-----|


  PM PM PM      PM   PM PM   PM PM
  S  S  S  E.   S  S S  S  S S  S  E.
---------------------------------------|
---------------------------------------|
---------------------------------------|
---------------------------------------|
----------------2----2--2----2--2------|
--4--4-----4S---0----0--0----0--0------|
--------4------------------------------|


         PM PM PM PM PM PM PM PM PM PM
  Q.     S  S  S  S  S  S  S  S  S  S
---------------------------------------|
---------------------------------------|
---------------------------------------|
---------------------------------------|
--7------------------------------------|
--7---------------4--5--7--5--4--------|
---------3--4--5-----------------5--4--|


  PM PM PM PM           PM PM
  S  S  S  S  Q    Q    S  E  S
--------------------------------|
--------------------------------|
--------------------------------|
--------------------------------|
------------------------2--2----|
-----8--7--5s-1----4----0--0----|
--3-----------------------------|


  PM PM
  S  E  E  E.
---------------|
---------------|
---------------|
---------------|
--2--2---------|
--0--0---------|
---------------|


            PM PM           PM PM
  S  S S  S S  S  S  S S  S S  S  S  S S  S
--------------------------------------------|
--------------------------------------------|
--------------------------------------------|
--------------------------------------------|
--------------------------------------------|
--------------------------------------------|
--0h-3-0h-3-0--0--0h-1-0h-1-0--0--0h-3-0h-3-|


    PM PM PM PM PM   PM PM PM PM PM
  S S  S  S  S  S  S S  S  S  S  S  Q
-----------------------------------------|
-----------------------------------------|
-----------------------------------------|
-----------------------------------------|
------------------------------------3----|
------------------------------------3----|
--0-0--0--0--0--0----0--0--0--0--0--1----|


            PM PM           PM PM
  S  S S  S S  S  S  S S  S S  S  S  S S  S
--------------------------------------------|
--------------------------------------------|
--------------------------------------------|
--------------------------------------------|
--------------------------------------------|
--------------------------------------------|
--0h-3-0h-3-0--0--0h-1-0h-1-0--0--0h-3-0h-3-|


    PM PM PM PM PM PM PM
  S S  S  S  S  S  S  S  Q    Q
-----------------------------------|
-----------------------------------|
-----------------------------------|
-----------------------------------|
-------------------------3----6----|
-------------------------3----6----|
--0-0--0--0--0--0--0--0--1----4----|


            PM PM           PM PM
  S  S S  S S  S  S  S S  S S  S  S  S S  S
--------------------------------------------|
--------------------------------------------|
--------------------------------------------|
--------------------------------------------|
--------------------------------------------|
--------------------------------------------|
--0h-3-0h-3-0--0--0h-1-0h-1-0--0--0h-3-0h-3-|


    PM PM PM PM PM   PM PM PM PM PM
  S S  S  S  S  S  S S  S  S  S  S  Q
-----------------------------------------|
-----------------------------------------|
-----------------------------------------|
-----------------------------------------|
------------------------------------3----|
------------------------------------3----|
--0-0--0--0--0--0----0--0--0--0--0--1----|


            PM PM           PM PM
  S  S S  S S  S  S  S S  S S  S  S  S S  S
--------------------------------------------|
--------------------------------------------|
--------------------------------------------|
--------------------------------------------|
--------------------------------------------|
--------------------------------------------|
--0h-3-0h-3-0--0--0h-1-0h-1-0--0--0h-3-0h-3-|


    PM PM PM PM PM PM PM
  S S  S  S  S  S  S  S  Q    Q
-----------------------------------|
-----------------------------------|
-----------------------------------|
-----------------------------------|
-------------------------3----6----|
-------------------------3----6----|
--0-0--0--0--0--0--0--0--1----4----|


            PM PM           PM PM
  S  S S  S S  S  S  S S  S S  S  S  S S  S
--------------------------------------------|
--------------------------------------------|
--------------------------------------------|
--------------------------------------------|
--------------------------------------------|
--------------------------------------------|
--0h-3-0h-3-0--0--0h-1-0h-1-0--0--0h-3-0h-3-|


    PM PM PM PM PM   PM PM PM PM PM
  S S  S  S  S  S  S S  S  S  S  S  Q
-----------------------------------------|
-----------------------------------------|
-----------------------------------------|
-----------------------------------------|
------------------------------------3----|
------------------------------------3----|
--0-0--0--0--0--0----0--0--0--0--0--1----|


            PM PM           PM PM
  S  S S  S S  S  S  S S  S S  S  S  S S  S
--------------------------------------------|
--------------------------------------------|
--------------------------------------------|
--------------------------------------------|
--------------------------------------------|
--------------------------------------------|
--0h-3-0h-3-0--0--0h-1-0h-1-0--0--0h-3-0h-3-|


    PM PM PM PM PM PM PM
  S S  S  S  S  S  S  S  Q    Q
-----------------------------------|
-----------------------------------|
-----------------------------------|
-----------------------------------|
-------------------------3----6----|
-------------------------3----6----|
--0-0--0--0--0--0--0--0--1----4----|


            PM PM           PM PM
  S  S S  S S  S  S  S S  S S  S  S  S S  S
--------------------------------------------|
--------------------------------------------|
--------------------------------------------|
--------------------------------------------|
--------------------------------------------|
--------------------------------------------|
--0h-3-0h-3-0--0--0h-1-0h-1-0--0--0h-3-0h-3-|


    PM PM PM PM PM   PM PM PM PM PM
  S S  S  S  S  S  S S  S  S  S  S  Q
-----------------------------------------|
-----------------------------------------|
-----------------------------------------|
-----------------------------------------|
------------------------------------3----|
------------------------------------3----|
--0-0--0--0--0--0----0--0--0--0--0--1----|


            PM PM           PM PM
  S  S S  S S  S  S  S S  S S  S  S  S S  S
--------------------------------------------|
--------------------------------------------|
--------------------------------------------|
--------------------------------------------|
--------------------------------------------|
--------------------------------------------|
--0h-3-0h-3-0--0--0h-1-0h-1-0--0--0h-3-0h-3-|


    PM PM PM PM PM PM PM
  S S  S  S  S  S  S  S  Q    Q
-----------------------------------|
-----------------------------------|
-----------------------------------|
-----------------------------------|
-------------------------3----6----|
-------------------------3----6----|
--0-0--0--0--0--0--0--0--1----4----|


       PM PM
  Q    E  E  E  E    Q
---------------------------|
---------------------------|
-------------------<>3~----|
---------------------------|
--2----------2-------------|
--2----------2-------------|
--0----0--1--0-------------|


  PM PM              PM PM
  E  E  Q      Q     E  E
---------------------------|
---------------------------|
---------------------------|
--1--2---------------------|
--------1----<>2~----------|
---------------------1--4--|
---------------------------|


  PM PM
  E  E  S  S  S  S E  E  E  E
-------------------------------|
-------------------------------|
-------------------------------|
-------------------------1--0--|
--3--2--1h-2p-1h-2----2--------|
-------------------4-----------|
-------------------------------|


               SH
  E  E  Q      Q     Q
--------------------------|
--------------------------|
--------------------------|
--1--5--------------------|
--------5----<>4~----0----|
--------------------------|
--------------------------|


  H         E  Q.
----------------------|
----------------------|
----------------------|
----------------------|
---------------3------|
--3~-----------3------|
------------0--1------|


       PM PM
  Q    E  E  E  E  Q
------------------------|
------------------------|
-------------------3----|
-------------------2----|
--2----------2-----1----|
--2----------2----------|
--0----0--1--0----------|


  PM PM            PM PM
  E  E  Q    Q     E  E
-------------------------|
-------------------------|
--0--1-------------------|
--------0----1~----------|
-------------------------|
-------------------4--7--|
-------------------------|


  PM PM
  E  E  S  S  S  S E  E  E  E
-------------------------------|
-------------------------------|
-------------------------------|
-------------------------1--0--|
--6--5--4h-5p-4h-5----2--------|
-------------------4-----------|
-------------------------------|


  E  E  Q    Q    E  E  Q
------------------------------|
--------6----5----------------|
-----0------------5--4--3\----|
--1---------------------------|
------------------------------|
------------------------------|
------------------------------|


       PM PM
  Q    E  E  E  E    Q
---------------------------|
---------------------------|
-------------------<>3~----|
---------------------------|
--2----------2-------------|
--2----------2-------------|
--0----0--1--0-------------|


  PM PM              PM PM
  E  E  Q      Q     E  E
---------------------------|
---------------------------|
---------------------------|
--1--2---------------------|
--------1----<>2~----------|
---------------------4--7--|
---------------------------|


  PM PM
  E  E  S  S  S  S E  E  E  E
-------------------------------|
-------------------------------|
-------------------------------|
-------------------------1--0--|
--6--5--4h-5p-4h-5----2--------|
-------------------4-----------|
-------------------------------|


  E  E  Q    Q    Q       W.
-----------------------|-------------------|
--------6----5---------|-------------------|
-----0------------5----|--4----------------|
--1--------------------|-------------------|
-----------------------|-------------------|
-----------------------|-------------------|
-----------------------|-------------------|


   T                T                T
   S S  S  S  S  S  S S  S  S  S  S  S S  S
---------------------------------------------|
---------------------------------------------|
---------------------------------------------|
---------------------------------------------|
---------------------------------------------|
---------------------------------------------|
--18-6p-5h-6p-5h-6-18-6p-5h-6p-5h-6-18-6p-5h-|


   T                T                T
   S S  S  S  S  S  S S  S  S  S  S  S S  S
---------------------------------------------|
---------------------------------------------|
---------------------------------------------|
---------------------------------------------|
---------------------------------------------|
---------------------------------------------|
--14-6p-5h-6p-5h-6-13-6p-5h-6p-5h-6-12-9p-8h-|


   T                T                T
   S S  S  S  S  S  S S  S  S  S  S  S S  S
---------------------------------------------|
---------------------------------------------|
---------------------------------------------|
---------------------------------------------|
---------------------------------------------|
---------------------------------------------|
--18-6p-5h-6p-5h-6-18-6p-5h-6p-5h-6-18-6p-5h-|


   T                T                       T
   S S  S  S  S  S  S S  S  S  S  S S  E.   S
----------------------------------------------|
----------------------------------------------|
----------------------------------------------|
----------------------------------------------|
----------------------------------------------|
----------------------------------------------|
--14-6p-5h-6p-5h-6-13-6p-5h-6p-5h-6-8S-9---12-|


   T                T                T
   S S  S  S  S  S  S S  S  S  S  S  S S  S
---------------------------------------------|
---------------------------------------------|
---------------------------------------------|
---------------------------------------------|
---------------------------------------------|
---------------------------------------------|
--18-6p-5h-6p-5h-6-18-6p-5h-6p-5h-6-18-6p-5h-|


   T                T                T
   S S  S  S  S  S  S S  S  S  S  S  S S  S
---------------------------------------------|
---------------------------------------------|
---------------------------------------------|
---------------------------------------------|
---------------------------------------------|
---------------------------------------------|
--14-6p-5h-6p-5h-6-13-6p-5h-6p-5h-6-12-9p-8h-|


   T                T                T
   S S  S  S  S  S  S S  S  S  S  S  S S  S
---------------------------------------------|
---------------------------------------------|
---------------------------------------------|
---------------------------------------------|
---------------------------------------------|
---------------------------------------------|
--18-6p-5h-6p-5h-6-18-6p-5h-6p-5h-6-18-6p-5h-|


   T                T                       T
   S S  S  S  S  S  S S  S  S  S  S S  E.   S
----------------------------------------------|
----------------------------------------------|
----------------------------------------------|
----------------------------------------------|
----------------------------------------------|
----------------------------------------------|
--14-6p-5h-6p-5h-6-13-6p-5h-6p-5h-6-8S-9---12-|


       PM PM
  Q    E  E  E  E    Q
---------------------------|
---------------------------|
-------------------<>3~----|
---------------------------|
--2----------2-------------|
--2----------2-------------|
--0----0--1--0-------------|


  PM PM              PM PM
  E  E  Q      Q     E  E
---------------------------|
---------------------------|
---------------------------|
--1--2---------------------|
--------1----<>2~----------|
---------------------1--4--|
---------------------------|


  PM PM
  E  E  S  S  S  S E  E  E  E
-------------------------------|
-------------------------------|
-------------------------------|
-------------------------1--0--|
--3--2--1h-2p-1h-2----2--------|
-------------------4-----------|
-------------------------------|


               SH
  E  E  Q      Q     Q
--------------------------|
--------------------------|
--------------------------|
--1--5--------------------|
--------5----<>4~----0----|
--------------------------|
--------------------------|


  \1/                      PM PM
  W                   Q    E  E  E  E  Q
-------------------|------------------------|
-------------------|------------------------|
-------------------|-------------------3----|
-------------------|-------------------2----|
-------------------|--2----------2-----1----|
--3----------------|--2----------2----------|
-------------------|--0----0--1--0----------|


  PM PM            PM PM
  E  E  Q    Q     E  E
-------------------------|
-------------------------|
--0--1-------------------|
--------0----1~----------|
-------------------------|
-------------------4--7--|
-------------------------|


  PM PM
  E  E  S  S  S  S E  E  E  E
-------------------------------|
-------------------------------|
-------------------------------|
-------------------------1--0--|
--6--5--4h-5p-4h-5----2--------|
-------------------4-----------|
-------------------------------|


  E  E  Q    Q    Q    Q
-----------------------------|
--------6----5---------------|
-----0------------5----3\----|
--1--------------------------|
-----------------------------|
-----------------------------|
-----------------------------|


       PM PM
  Q    E  E  E  E    Q
---------------------------|
---------------------------|
-------------------<>3~----|
---------------------------|
--2----------2-------------|
--2----------2-------------|
--0----0--1--0-------------|


  PM PM              PM PM
  E  E  Q      Q     E  E
---------------------------|
---------------------------|
---------------------------|
--1--2---------------------|
--------1----<>2~----------|
---------------------4--7--|
---------------------------|


  PM PM
  E  E  S  S  S  S E  E  E  E
-------------------------------|
-------------------------------|
-------------------------------|
-------------------------1--0--|
--6--5--4h-5p-4h-5----2--------|
-------------------4-----------|
-------------------------------|


  E  E  Q    Q    Q       W.
-----------------------|-------------------|
--------6----5---------|-------------------|
-----0------------5----|--4----------------|
--1--------------------|-------------------|
-----------------------|-------------------|
-----------------------|-------------------|
-----------------------|-------------------|


           |-3-| |-3-|          |-3-| |-3-|
  E.    S  S S S S S S E.    S  S S S S S S
--------------------------------------------|
--------------------------------------------|
--------------------------------------------|
--5S---(x)-------------5S---(x)-------------|
--------------------------------------------|
-----------0---0-0-0------------0---0-0-0---|
--------------------------------------------|


           |-3-| |-3-| |---3---|  |---3---|
  E.    S  S S S S S S E   E   E  E   E   E
---------------------------------------------|
---------------------------------------------|
---------------------------------------------|
--5S---(x)-------------5h--6p--5--2h--3p--2--|
---------------------------------------------|
-----------0---0-0-0-------------------------|
---------------------------------------------|


           |-3-| |-3-|          |-3-| |-3-|
  E.    S  S S S S S S E.    S  S S S S S S
--------------------------------------------|
--------------------------------------------|
--------------------------------------------|
--5S---(x)-------------5S---(x)-------------|
--------------------------------------------|
-----------0---0-0-0------------0---0-0-0---|
--------------------------------------------|


                       PM PM PM PM PM PM
           |-3-| |-3-| |--3--|  |--3--|
  E.    S  S S S S S S E  E  E  E  E  E
-----------------------------------------|
-----------------------------------------|
--------------------------3-----6-----5--|
--5S---(x)-------------5-----5-----5-----|
-----------------------------------------|
-----------0---0-0-0---------------------|
-----------------------------------------|


           |-3-| |-3-|          |-3-| |-3-|
  E.    S  S S S S S S E.    S  S S S S S S
--------------------------------------------|
--------------------------------------------|
--------------------------------------------|
--5S---(x)-------------5S---(x)-------------|
--------------------------------------------|
-----------0---0-0-0------------0---0-0-0---|
--------------------------------------------|


           |-3-| |-3-| |---3---|  |---3---|
  E.    S  S S S S S S E   E   E  E   E   E
---------------------------------------------|
---------------------------------------------|
---------------------------------------------|
--5S---(x)-------------5h--6p--5--2h--3p--2--|
---------------------------------------------|
-----------0---0-0-0-------------------------|
---------------------------------------------|


           |-3-| |-3-|          |-3-| |-3-|
  E.    S  S S S S S S E.    S  S S S S S S
--------------------------------------------|
--------------------------------------------|
--------------------------------------------|
--5S---(x)-------------5S---(x)-------------|
--------------------------------------------|
-----------0---0-0-0------------0---0-0-0---|
--------------------------------------------|


                       PM PM PM PM PM PM
           |-3-| |-3-| |--3--|  |--3--|
  E.    S  S S S S S S E  E  E  E  E  E
-----------------------------------------|
-----------------------------------------|
--------------------------3-----6-----5--|
--5S---(x)-------------5-----5-----5-----|
-----------------------------------------|
-----------0---0-0-0---------------------|
-----------------------------------------|


           |-3-| |-3-|          |-3-| |-3-|
  E.    S  S S S S S S E.    S  S S S S S S
--------------------------------------------|
--------------------------------------------|
--------------------------------------------|
--5S---(x)-------------5S---(x)-------------|
--5S---(x)-------------5S---(x)-------------|
-----------0---0-0-0------------0---0-0-0---|
--------------------------------------------|


           |-3-| |-3-| |---3---|  |---3---|
  E.    S  S S S S S S E   E   E  E   E   E
---------------------------------------------|
---------------------------------------------|
---------------------------------------------|
--5S---(x)-------------5S--6S--5--2S--3S--2--|
--5S---(x)-------------5S--6S--5--2S--3S--2--|
-----------0---0-0-0-------------------------|
---------------------------------------------|


           |-3-| |-3-|          |-3-| |-3-|
  E.    S  S S S S S S E.    S  S S S S S S
--------------------------------------------|
--------------------------------------------|
--------------------------------------------|
--5S---(x)-------------5S---(x)-------------|
--5S---(x)-------------5S---(x)-------------|
-----------0---0-0-0------------0---0-0-0---|
--------------------------------------------|


           |-3-| |-3-| |---3---|  |---3---|
  E.    S  S S S S S S E   E   E  E   E   E
---------------------------------------------|
---------------------------------------------|
---------------------------------------------|
--5S---(x)-------------5S--6S--5--2S--3S--2--|
--5S---(x)-------------5S--6S--5--2S--3S--2--|
-----------0---0-0-0-------------------------|
---------------------------------------------|


           |-3-| |-3-|          |-3-| |-3-|
  E.    S  S S S S S S E.    S  S S S S S S
--------------------------------------------|
--------------------------------------------|
--------------------------------------------|
--5S---(x)-------------5S---(x)-------------|
--5S---(x)-------------5S---(x)-------------|
-----------0---0-0-0------------0---0-0-0---|
--------------------------------------------|


           |-3-| |-3-| |---3---|  |---3---|
  E.    S  S S S S S S E   E   E  E   E   E
---------------------------------------------|
---------------------------------------------|
---------------------------------------------|
--5S---(x)-------------5S--6S--5--2S--3S--2--|
--5S---(x)-------------5S--6S--5--2S--3S--2--|
-----------0---0-0-0-------------------------|
---------------------------------------------|


           |-3-| |-3-|          |-3-| |-3-|
  E.    S  S S S S S S E.    S  S S S S S S
--------------------------------------------|
--------------------------------------------|
--------------------------------------------|
--5S---(x)-------------5S---(x)-------------|
--5S---(x)-------------5S---(x)-------------|
-----------0---0-0-0------------0---0-0-0---|
--------------------------------------------|


           |---3---|  |---3---|
  E.    S  E   E   E  E   E   E  Q
--------------------------------------|
--------------------------------------|
--------------------------------------|
--5S---(x)-5S--6S--5--2S--3S--2--2----|
--5S---(x)-5S--6S--5--2S--3S--2--2----|
--------------------------------------|
--------------------------------------|


  H        H           H        H
--------------------|--------------------|
--------------------|--------------------|
--------------------|--------------------|
--------------------|--------------------|
--7--------5--------|--L--------3--------|
--7--------5--------|--L--------3--------|
--5--------3--------|--L--------1--------|


  H        H
--------------------|
--------------------|
--------------------|
--------------------|
--7--------5--------|
--7--------5--------|
--5--------3--------|


      PM  PM PM PM  PM PM
      |---3--|  |---3--|
  E.  E   E  E  E   E  E   S Q
----------------------------------|
----------------------------------|
----------------------------------|
---------10-----9-----------------|
--L---0------0-----10--9--10-L----|
--L-------------------------------|
--L-------------------------------|


  H        H           H        H
--------------------|--------------------|
--------------------|--------------------|
--------------------|--------------------|
--------------------|--------------------|
--7--------5--------|--L--------3--------|
--7--------5--------|--L--------3--------|
--5--------3--------|--L--------1--------|


  H        H
--------------------|
--------------------|
--------------------|
--------------------|
--7--------5--------|
--7--------5--------|
--5--------3--------|


      PM  PM PM PM  PM PM
      |---3--|  |---3--|
  E.  E   E  E  E   E  E   S Q
----------------------------------|
----------------------------------|
----------------------------------|
---------10-----9-----------------|
--L---0------0-----10--9--10-L----|
--L-------------------------------|
--L-------------------------------|


  H        H           H        H
--------------------|--------------------|
--------------------|--------------------|
--------------------|--------------------|
--------------------|--------------------|
--7--------5--------|--L--------3--------|
--7--------5--------|--L--------3--------|
--5--------3--------|--L--------1--------|


  H        H
--------------------|
--------------------|
--------------------|
--------------------|
--7--------5--------|
--7--------5--------|
--5--------3--------|


      PM  PM PM PM  PM PM
      |---3--|  |---3--|
  E.  E   E  E  E   E  E   S Q
----------------------------------|
----------------------------------|
----------------------------------|
---------10-----9-----------------|
--L---0------0-----10--9--10-L----|
--L-------------------------------|
--L-------------------------------|


  H        H           H        H
--------------------|--------------------|
--------------------|--------------------|
--------------------|--------------------|
--------------------|--------------------|
--7--------5--------|--L--------3--------|
--7--------5--------|--L--------3--------|
--5--------3--------|--L--------1--------|


  H        H
--------------------|
--------------------|
--------------------|
--------------------|
--7--------5--------|
--7--------5--------|
--5--------3--------|


      PM  PM PM PM  PM PM
      |---3--|  |---3--|
  E.  E   E  E  E   E  E   S Q
----------------------------------|
----------------------------------|
----------------------------------|
---------10-----9-----------------|
--L---0------0-----10--9--10-L----|
--L-------------------------------|
--L-------------------------------|


  PM           PM PM   PM PM
  E  S  E.  E  S  E  S S  E   S
--------------------------------|
--------------------------------|
--------------------------------|
--------------------------------|
--------------------------------|
-----------------------------/3-|
--0----/7---6--0--0----0--0-----|


        PM PM
  E  E  S  E  S E.  E.  E
---------------------------|
---------------------------|
---------------------------|
---------------------------|
---------------------------|
--L--2----------2----------|
--------0--0--------5---4--|


  PM            PM PM   PM PM
  E  S   E.  E  S  E  S S  E   S
---------------------------------|
---------------------------------|
---------------------------------|
---------------------------------|
------------------------------/5-|
-------/10---9----------------/5-|
--0-------------0--0----0--0-----|


        PM PM   PM
  E  E  S  S  S S  H
-----------------------------|
-----------------------------|
-----------------------------|
-----------------------------|
--L--7-------------5~--------|
--L--7-----------------------|
--------0--0----0------------|


  PM           PM PM   PM PM
  E  S  E.  E  S  E  S S  E   S
--------------------------------|
--------------------------------|
--------------------------------|
--------------------------------|
--------------------------------|
-----------------------------/3-|
--0----/7---6--0--0----0--0-----|


        PM PM
  E  E  S  E  S E.  E.  E
---------------------------|
---------------------------|
---------------------------|
---------------------------|
---------------------------|
--L--2----------2----------|
--------0--0--------5---4--|


  PM           PM PM PM PM PM PM
               |--3--|  |--3--|
  E  S  E.  E  E  E  E  E  E  E
---------------------------------|
---------------------------------|
---------------------------------|
---------------------------------|
---------------------------------|
-------/7---5--5--5--5--7--7--7--|
--0------------------------------|


  Q     E   E  E.  E.  E
--------------------------|
--------------------------|
--------------------------|
--------------------------|
-------------------5------|
--0----/7~--0--5-------2--|
--------------------------|


  PM              PM   PM PM
  E  S   E.  E  S E  S S  E   S
--------------------------------|
--------------------------------|
--------------------------------|
--------------------------------|
--------------------------------|
-------/10---9---------------/3-|
--0-------------0-0----0--0-----|


        PM PM
  E  E  S  E  S E.  E.  E
---------------------------|
---------------------------|
---------------------------|
---------------------------|
---------------------------|
--L--2----------2----------|
--------0--0--------5---4--|


  PM            PM    PM PM
  E  S   E.  E  E  E  S  E   S
-------------------------------|
-------------------------------|
-------------------------------|
-------------------------------|
----------------------------/5-|
-------/10---9--------------/5-|
--0-------------0-----0--0-----|


        PM PM   PM   SH
  E  E  S  S  S S    H
-------------------------------|
-------------------------------|
-------------------------------|
-------------------------------|
--L--7-------------------------|
--L--7-------------<>4~--------|
--------0--0----0--------------|


  PM            PM   PM PM
  E  S E.  E  S E  S S  E   S
------------------------------|
------------------------------|
------------------------------|
------------------------------|
------------------------------|
-------5---4---------------/7-|
--0----3---2--0-0----0--0--/5-|


        PM PM
  E  E  S  E  S E.  E.  E
---------------------------|
---------------------------|
---------------------------|
---------------------------|
---------------------------|
--L--5----------9---7---6--|
--L--3--0--0----7---5---4--|


  PM           PM PM PM PM PM PM
               |--3--|  |--3--|
  E  S  E.  E  E  E  E  E  E  E
---------------------------------|
---------------------------------|
---------------------------------|
---------------------------------|
---------------------------------|
-------/7---5--5--5--5--7--7--7--|
--0------------------------------|


  Q     E   E  E.  E.  E
--------------------------|
--------------------------|
--------------------------|
--------------------------|
-------------------5------|
--0----/7~--0--5-------2--|
--------------------------|


  PM
  Q    H        Q
---------------------|
---------------------|
---------------------|
---------------------|
---------------------|
---------------------|
--0------------------|


             PM PM PM PM PM
  Q    S S S S  S  S  S  S  Q
---------------------------------|
---------------------------------|
---------------------------------|
---------------------------------|
----------------------------3----|
----------------------------3----|
-------------0--0--0--0--0--1----|


            PM PM           PM PM
  S  S S  S S  S  S  S S  S S  S  S  S S  S
--------------------------------------------|
--------------------------------------------|
--------------------------------------------|
--------------------------------------------|
--------------------------------------------|
--------------------------------------------|
--0h-3-0h-3-0--0--0h-1-0h-1-0--0--0h-3-0h-3-|


    PM PM PM PM PM PM PM
  S S  S  S  S  S  S  S  Q    Q
-----------------------------------|
-----------------------------------|
-----------------------------------|
-----------------------------------|
-------------------------3----6----|
-------------------------3----6----|
--0-0--0--0--0--0--0--0--1----4----|


            PM PM           PM PM
  S  S S  S S  S  S  S S  S S  S  S  S S  S
--------------------------------------------|
--------------------------------------------|
--------------------------------------------|
--------------------------------------------|
--------------------------------------------|
--------------------------------------------|
--0h-3-0h-3-0--0--0h-1-0h-1-0--0--0h-3-0h-3-|


    PM PM PM PM PM   PM PM PM PM PM
  S S  S  S  S  S  S S  S  S  S  S  Q
-----------------------------------------|
-----------------------------------------|
-----------------------------------------|
-----------------------------------------|
------------------------------------3----|
------------------------------------3----|
--0-0--0--0--0--0----0--0--0--0--0--1----|


            PM PM           PM PM
  S  S S  S S  S  S  S S  S S  S  S  S S  S
--------------------------------------------|
--------------------------------------------|
--------------------------------------------|
--------------------------------------------|
--------------------------------------------|
--------------------------------------------|
--0h-3-0h-3-0--0--0h-1-0h-1-0--0--0h-3-0h-3-|


    PM PM PM PM PM PM PM
  S S  S  S  S  S  S  S  Q    Q
-----------------------------------|
-----------------------------------|
-----------------------------------|
-----------------------------------|
-------------------------3----6----|
-------------------------3----6----|
--0-0--0--0--0--0--0--0--1----4----|


            PM PM           PM PM
  S  S S  S S  S  S  S S  S S  S  S  S S  S
--------------------------------------------|
--------------------------------------------|
--------------------------------------------|
--------------------------------------------|
------------------2h-3-2h-3-----------------|
--------------------------------------------|
--0h-3-0h-3-0--0------------0--0--0h-3-0h-3-|


    PM PM PM PM PM   PM PM PM PM PM
  S S  S  S  S  S  S S  S  S  S  S  Q
-----------------------------------------|
-----------------------------------------|
-----------------------------------------|
-----------------------------------------|
------------------------------------3----|
------------------------------------3----|
--0-0--0--0--0--0----0--0--0--0--0--1----|


            PM PM           PM PM
  S  S S  S S  S  S  S S  S S  S  S  S S  S
--------------------------------------------|
--------------------------------------------|
--------------------------------------------|
--------------------------------------------|
--------------------------------------------|
--------------------------------------------|
--0h-3-0h-3-0--0--0h-1-0h-1-0--0--0h-3-0h-3-|


    PM PM PM PM PM PM PM
  S S  S  S  S  S  S  S  Q    Q
-----------------------------------|
-----------------------------------|
-----------------------------------|
-----------------------------------|
-------------------------3----6----|
-------------------------3----6----|
--0-0--0--0--0--0--0--0--1----4----|


            PM PM           PM PM
  S  S S  S S  S  S  S S  S S  S  S  S S  S
--------------------------------------------|
--------------------------------------------|
--------------------------------------------|
--------------------------------------------|
--------------------------------------------|
--------------------------------------------|
--0h-3-0h-3-0--0--0h-1-0h-1-0--0--0h-3-0h-3-|


    PM PM PM PM PM   PM PM PM PM PM
  S S  S  S  S  S  S S  S  S  S  S  Q
-----------------------------------------|
-----------------------------------------|
-----------------------------------------|
-----------------------------------------|
------------------------------------3----|
------------------------------------3----|
--0-0--0--0--0--0----0--0--0--0--0--1----|


            PM PM           PM PM
  S  S S  S S  S  S  S S  S S  S  S  S S  S
--------------------------------------------|
--------------------------------------------|
--------------------------------------------|
--------------------------------------------|
--------------------------------------------|
--------------------------------------------|
--0h-3-0h-3-0--0--0h-1-0h-1-0--0--0h-3-0h-3-|


    PM PM PM PM PM PM PM
  S S  S  S  S  S  S  S  Q    Q
-----------------------------------|
-----------------------------------|
-----------------------------------|
-----------------------------------|
-------------------------3----6----|
-------------------------3----6----|
--0-0--0--0--0--0--0--0--1----4----|


       PM PM
  Q    E  E  E  E    Q
---------------------------|
---------------------------|
-------------------<>3~----|
---------------------------|
--2----------2-------------|
--2----------2-------------|
--0----0--1--0-------------|


  PM PM              PM PM
  E  E  Q      Q     E  E
---------------------------|
---------------------------|
---------------------------|
--1--2---------------------|
--------1----<>2~----------|
---------------------1--4--|
---------------------------|


  PM PM
  E  E  S  S  S  S E  E  E  E
-------------------------------|
-------------------------------|
-------------------------------|
-------------------------1--0--|
--3--2--1h-2p-1h-2----2--------|
-------------------4-----------|
-------------------------------|


               SH
  E  E  Q      Q     Q
--------------------------|
--------------------------|
--------------------------|
--1--5--------------------|
--------5----<>4~----0----|
--------------------------|
--------------------------|


  H         E  Q.
----------------------|
----------------------|
----------------------|
----------------------|
---------------3------|
--3~-----------3------|
------------0--1------|


       PM PM
  Q    E  E  E  E  Q
-------------------------|
-------------------------|
-------------------3~----|
-------------------------|
--2----------2-----------|
--2----------2-----------|
--0----0--1--0-----------|


  PM PM            PM PM
  E  E  Q    Q     E  E
-------------------------|
-------------------------|
--0--1-------------------|
--------0----1~----------|
-------------------------|
-------------------4--7--|
-------------------------|


  PM PM
  E  E  S  S  S  S E  E  E  E
-------------------------------|
-------------------------------|
-------------------------------|
-------------------------1--0--|
--6--5--4h-5p-4h-5----2--------|
-------------------4-----------|
-------------------------------|


  E  E  Q    Q    E  E  Q
------------------------------|
--------6----5----------------|
-----0------------5--4--3\----|
--1---------------------------|
------------------------------|
------------------------------|
------------------------------|


       PM PM
  Q    E  E  E  E    Q
---------------------------|
---------------------------|
-------------------<>3~----|
---------------------------|
--2----------2-------------|
--2----------2-------------|
--0----0--1--0-------------|


  PM PM              PM PM
  E  E  Q      Q     E  E
---------------------------|
---------------------------|
---------------------------|
--1--2---------------------|
--------1----<>2~----------|
---------------------4--7--|
---------------------------|


  PM PM
  E  E  S  S  S  S E  E  E  E
-------------------------------|
-------------------------------|
-------------------------------|
-------------------------1--0--|
--6--5--4h-5p-4h-5----2--------|
-------------------4-----------|
-------------------------------|


  E  E  Q    Q    Q       W.
-----------------------|-------------------|
--------6----5---------|-------------------|
-----0------------5----|--4----------------|
--1--------------------|-------------------|
-----------------------|-------------------|
-----------------------|-------------------|
-----------------------|-------------------|


   T                T                T
   S S  S  S  S  S  S S  S  S  S  S  S S  S
---------------------------------------------|
---------------------------------------------|
---------------------------------------------|
---------------------------------------------|
---------------------------------------------|
---------------------------------------------|
--18-6p-5h-6p-5h-6-18-6p-5h-6p-5h-6-18-6p-5h-|


   T                T                T
   S S  S  S  S  S  S S  S  S  S  S  S S  S
---------------------------------------------|
---------------------------------------------|
---------------------------------------------|
---------------------------------------------|
---------------------------------------------|
---------------------------------------------|
--14-6p-5h-6p-5h-6-13-6p-5h-6p-5h-6-12-9p-8h-|


   T                T                T
   S S  S  S  S  S  S S  S  S  S  S  S S  S
---------------------------------------------|
---------------------------------------------|
---------------------------------------------|
---------------------------------------------|
---------------------------------------------|
---------------------------------------------|
--18-6p-5h-6p-5h-6-18-6p-5h-6p-5h-6-18-6p-5h-|


   T                T                       T
   S S  S  S  S  S  S S  S  S  S  S S  E.   S
----------------------------------------------|
----------------------------------------------|
----------------------------------------------|
----------------------------------------------|
----------------------------------------------|
----------------------------------------------|
--14-6p-5h-6p-5h-6-13-6p-5h-6p-5h-6-8S-9---12-|


   T                T                T
   S S  S  S  S  S  S S  S  S  S  S  S S  S
---------------------------------------------|
---------------------------------------------|
---------------------------------------------|
---------------------------------------------|
---------------------------------------------|
---------------------------------------------|
--18-6p-5h-6p-5h-6-18-6p-5h-6p-5h-6-18-6p-5h-|


   T                T                T
   S S  S  S  S  S  S S  S  S  S  S  S S  S
---------------------------------------------|
---------------------------------------------|
---------------------------------------------|
---------------------------------------------|
---------------------------------------------|
---------------------------------------------|
--14-6p-5h-6p-5h-6-13-6p-5h-6p-5h-6-12-9p-8h-|


   T                T                T
   S S  S  S  S  S  S S  S  S  S  S  S S  S
---------------------------------------------|
---------------------------------------------|
---------------------------------------------|
---------------------------------------------|
---------------------------------------------|
---------------------------------------------|
--18-6p-5h-6p-5h-6-18-6p-5h-6p-5h-6-18-6p-5h-|


   T                T                       T
   S S  S  S  S  S  S S  S  S  S  S S  E.   S
----------------------------------------------|
----------------------------------------------|
----------------------------------------------|
----------------------------------------------|
----------------------------------------------|
----------------------------------------------|
--14-6p-5h-6p-5h-6-13-6p-5h-6p-5h-6-8S-9---12-|


  PM PM PM PM         PM PM PM PM     PM PM
  S  S  S  S  S S S S S  S  S  S  S S S  S
--------------------------------------------|
--------------------------------------------|
--------------------------------------------|
--------------------------------------------|
--------------7-8-7---------------5-3-------|
--0--0--0--0--------9-0--0--0--0------4--3--|
--------------------------------------------|


  PM PM PM PM         PM PM
  S  S  S  S  S S S S S  S  Q    E
------------------------------------|
------------------------------------|
------------------------------------|
------------------------------------|
--------------7-8-7---------5----6--|
--0--0--0--0--------9-0--0--5----6--|
----------------------------3----4--|


  PM PM PM PM         PM PM PM PM     PM PM
  S  S  S  S  S S S S S  S  S  S  S S S  S
--------------------------------------------|
--------------------------------------------|
--------------------------------------------|
--------------------------------------------|
--------------7-8-7---------------5-3-------|
--0--0--0--0--------9-0--0--0--0------4--3--|
--------------------------------------------|


  PM PM
  S  S  E.  E.  Q    E  E
---------------------------|
---------------------------|
---------------------------|
--------6---5---8----8--8--|
--------6---5---8----8--8--|
--0--0--4---3---6----6--6--|
---------------------------|


  PM PM PM PM         PM PM PM PM     PM PM
  S  S  S  S  S S S S S  S  S  S  S S S  S
--------------------------------------------|
--------------------------------------------|
--------------------------------------------|
--------------------------------------------|
--------------7-8-7---------------5-3-------|
--0--0--0--0--------9-0--0--0--0------4--3--|
--------------------------------------------|


  PM PM PM PM         PM PM
  S  S  S  S  S S S S S  S  Q    E
------------------------------------|
------------------------------------|
------------------------------------|
----------------------------7----8--|
--------------7-8-7---------5----6--|
--0--0--0--0--------9-0--0--5----6--|
------------------------------------|


  PM PM PM PM         PM PM PM PM     PM PM
  S  S  S  S  S S S S S  S  S  S  S S S  S
--------------------------------------------|
--------------------------------------------|
--------------------------------------------|
--------------------------------------------|
--------------7-8-7---------------5-3-------|
--0--0--0--0--------9-0--0--0--0------4--3--|
--------------------------------------------|


  PM PM
  S  S  E.  E.  Q    E  E
---------------------------|
---------------------------|
---------------------------|
--------6---5---8----8--8--|
--------6---5---8----8--8--|
--0--0--4---3---6----6--6--|
---------------------------|


  PM PM PM PM         PM PM PM PM     PM PM
  S  S  S  S  S S S S S  S  S  S  S S S  S
--------------------------------------------|
--------------------------------------------|
--------------------------------------------|
--------------------------------------------|
--------------7-8-7---------------5-3-------|
--0--0--0--0--------9-0--0--0--0------4--3--|
--------------------------------------------|


  PM PM PM PM         PM PM
  S  S  S  S  S S S S S  S  Q    E
------------------------------------|
------------------------------------|
------------------------------------|
------------------------------------|
--------------7-8-7---------5----6--|
--0--0--0--0--------9-0--0--5----6--|
----------------------------3----4--|


  PM PM PM PM         PM PM PM PM     PM PM
  S  S  S  S  S S S S S  S  S  S  S S S  S
--------------------------------------------|
--------------------------------------------|
--------------------------------------------|
--------------------------------------------|
--------------7-8-7---------------5-3-------|
--0--0--0--0--------9-0--0--0--0------4--3--|
--------------------------------------------|


  PM PM
  S  S  E.  E.  Q    E  E
---------------------------|
---------------------------|
---------------------------|
--------6---5---8----8--8--|
--------6---5---8----8--8--|
--0--0--4---3---6----6--6--|
---------------------------|


  PM PM PM PM         PM PM PM PM     PM PM
  S  S  S  S  S S S S S  S  S  S  S S S  S
--------------------------------------------|
--------------------------------------------|
--------------------------------------------|
--------------------------------------------|
--------------7-8-7---------------5-3-------|
--0--0--0--0--------9-0--0--0--0------4--3--|
--------------------------------------------|


  PM PM PM PM         PM PM
  S  S  S  S  S S S S S  S  Q    E
------------------------------------|
------------------------------------|
------------------------------------|
----------------------------7----8--|
--------------7-8-7---------5----6--|
--0--0--0--0--------9-0--0--5----6--|
------------------------------------|


  PM PM PM PM         PM PM PM PM     PM PM
  S  S  S  S  S S S S S  S  S  S  S S S  S
--------------------------------------------|
--------------------------------------------|
--------------------------------------------|
--------------------------------------------|
--------------7-8-7---------------5-3-------|
--0--0--0--0--------9-0--0--0--0------4--3--|
--------------------------------------------|


  PM PM
                |----3----|
  S  S  E.  E.  Q    Q    Q
-------------------------------|
-------------------------------|
-------------------------------|
--------6---5---8----8----8----|
--------6---5---8----8----8----|
--0--0--4---3---6----6----6----|
-------------------------------|


  PM PM PM PM PM PM PM PM
                          |----3----|
  S  S  S  S  S  S  S  S  Q    Q    Q
------------------------------------------|
------------------------------------------|
--------------------------3----3----3S----|
--------------------------3----3----3S----|
--------------------------1----1----1S----|
--1--1--1--1--0--0--0--0--1----1----1S----|
------------------------------------------|


  E  E  H.
---------------------||
---------------------||
--L--x---------------||
--L--x---------------||
--L--x---------------||
--L--x---------------||
---------------------||


Duration Legend
---------------
W - whole
H - half
Q - quarter
E - 8th
S - 16th
T - 32nd
X - 64th
. - note dotted
|-n-|  - n-tuplets


Tablature Legend
----------------
L - tied note
x - dead note
g - grace note
(n) - ghost note
> - accentuded note
NH - natural harmonic
AH - artificial harmonic
TH - tapped harmonic
SH - semi harmonic
PH - pitch harmonic
h - hammer on
p - pull off
b - bend
br - bendRelease
pb - preBend
pbr - preBendRelease
brb - bendReleaseBend
\n/ - tremolo bar dip
\n - tremolo bar dive
-/n - tremolo bar Release up
/n\ - tremolo bar inverted dip
/n - tremolo bar return
-\n - tremolo bar Release down
S - shift slide
s - legato slide
/ -  slide into from below or out of upwards
\ -  slide into from above or out of downwards
~ - vibrato
W - wide vibrato
tr - trill
TP - tremolo picking
T - tapping
S - slap
P - pop
< - fade in
^ - brush up
v - brush down
Related for Atrocity Evolution tab