Song name
# A B C D E F G H I J K L M N O P Q R S T U V W X Y Z

Amorphis - From The Heaven Of My Heart tab

Band: Amorphis
Song: From the Heaven of My Heart
Album: Skyforger
Tuning: Standard

|---5-------5--------------3-------3-------------1----1---------------|
|-5----7--5---5-3-1-0----3----5--3---3-1-0-----1----1---3-1--1-3-5----|
|---------------------2-------------------2-0-------------------------|
|---------------------------------------------------------------------|
|---------------------------------------------------------------------|
|---------------------------------------------------------------------|
 2 times

|---5-----5----------5-----5----------3-----3----------5---7-9/10-12-|
|-5-----5---5-3-1--5-----5---5-3-1--3-----3---3-1-0--5---------------|
|--------------------------------------------------------------------|
|--------------------------------------------------------------------|
|--------------------------------------------------------------------|
|--------------------------------------------------------------------|

|---5-----5----------5-----5----------3-----3----------5---9--12--15-|
|-5-----5---5-3-1--5-----5---5-3-1--3-----3---3-1-0--5---------------|
|--------------------------------------------------------------------|
|--------------------------------------------------------------------|
|--------------------------------------------------------------------|
|--------------------------------------------------------------------|


Hope you enjoy!!!
Tap to rate this tab
 
# A B C D E F G H I J K L M N O P Q R S T U V W X Y Z