Song name
# A B C D E F G H I J K L M N O P Q R S T U V W X Y Z

Amorphis - From The Earth I Rose tab

Band: Amorphis
Song: From the Earth I Rose
Album: Skyforger
Tuning: EADGBe

Legend: h=hammer on
        p=pull off
        ~=let ring

e|----------------------------|       |--------------------------------|
B|----------------------------|       |--------------------------------|
D|----------------------------|       |-----9--5--4--4h5p4h5p4---2~----|
G|-12--7--5--3--2-3-2h3p2-----|       |-12---------------------5-------|
A|------------------------3-5~|       |--------------------------------|
E|----------------------------|3 times|--------------------------------|
 Whole thing 2 times

Clean
e|------------------------------|------------------------------|
B|--------------3---------------|--------------3---------------|
D|-0-2-4-2--0-2----0-2-4-2-0----|-0-2-4-2--0-2----0-2-4-2-0----|
G|---------------------------0--|---------------------------0--|
A|------------------------------|------------------------------|
E|------------------------------|------------------------------|


Here is all I have for now. Listen the song for timing. Enjoy!
Tap to rate this tab
 
# A B C D E F G H I J K L M N O P Q R S T U V W X Y Z