Song name
# A B C D E F G H I J K L M N O P Q R S T U V W X Y Z

Amorphis - From The Heaven Of My Heart tab

Band: Amorphis
Song: From the Heaven of My Heart
Album: Skyforger
Tuning: DGCFAd


Intro:
|---6------6--------------4------4-------------------------------6h8p6-6h8p6-|
|-6----6-7---6h7p6-4----4----4-6---4h6p4-2------7----7-6-4/6-6---------------|
|--------------------6---------------------5--6----6-------------------------|
|----------------------------------------------------------------------------|
|----------------------------------------------------------------------------|
|----------------------------------------------------------------------------|

|---6------6--------------4------4-------------------------------------------|
|-6----6-7---6h7p6-4----4----4-6---4h6p4-2------7----7-6-4/6-6-let-ring------|
|--------------------6---------------------5--6----6-------------------------|
|----------------------------------------------------------------------------|
|----------------------------------------------------------------------------|
|----------------------------------------------------------------------------|


2nd Intro:
|---3----3----------3----3----------1----1----------3--5-8-10-10-|
|-3----3---3-1----3----3---3-1----1----1---1------3--------------|
|--------------3---------------3-------------3-2-----------------|
|----------------------------------------------------------------|
|----------------------------------------------------------------|
|----------------------------------------------------------------|

|---3----3----------3----3----------1----1----------3--10-13-15--|
|-3----3---3-1----3----3---3-1----1----1---1------3--------------|
|--------------3---------------3-------------3-2-----------------|
|----------------------------------------------------------------|
|----------------------------------------------------------------|
|----------------------------------------------------------------|


Verse; play twice:
|------------------------------------------------------------------------|
|------------------------------------------------------------------------|
|------------------------------------------------------------------------|
|-_________________________________palm_muted___________________________-|
|-5-5555555555555555-7777777777777-7-5-3-3333333333333335555555555555555-|
|-3-3333333333333333-5555555555555-5-3-1-1111111111111113333333333333333-|
  

Chorus; play twice
|---6------6--------------4------4-------------------------------------------|
|-6----6-7---6h7p6-4----4----4-6---4h6p4-2------7------7-6h7p6---4-6---------|
|--------------------6---------------------5--6----6-5---------6-------------|
|----------------------------------------------------------------------------|
|----------------------------------------------------------------------------|
|----------------------------------------------------------------------------| 


Then verse 2 times:
|------------------------------------------------------------------------|
|------------------------------------------------------------------------|
|------------------------------------------------------------------------|
|-_________________________________palm_muted___________________________-|
|-5-5555555555555555-7777777777777-7-5-3-3333333333333335555555555555555-|
|-3-3333333333333333-5555555555555-5-3-1-1111111111111113333333333333333-|


Chorus 2 times:
|---6------6--------------4------4-------------------------------------------|
|-6----6-7---6h7p6-4----4----4-6---4h6p4-2------7------7-6h7p6---4-6---------|
|--------------------6---------------------5--6----6-5---------6-------------|
|----------------------------------------------------------------------------|
|----------------------------------------------------------------------------|
|----------------------------------------------------------------------------| 

(solo, can't catch it, too fast)


Then Chorus 2 times:
|---6------6--------------4------4-------------------------------------------|
|-6----6-7---6h7p6-4----4----4-6---4h6p4-2------7------7-6h7p6---4-6---------|
|--------------------6---------------------5--6----6-5---------6-------------|
|----------------------------------------------------------------------------|
|----------------------------------------------------------------------------|
|----------------------------------------------------------------------------| 

Outro:
|---6------6--------------4------4-------------------------------------------|
|-6----6-7---6h7p6-4----4----4-6---4h6p4-2------7----7-6h7p6--4-6------------|
|--------------------6---------------------5--6----6-------------------------|
|----------------------------------------------------------------------------|
|----------------------------------------------------------------------------|
|----------------------------------------------------------------------------| 

Tap to rate this tab
# A B C D E F G H I J K L M N O P Q R S T U V W X Y Z