Song name
# A B C D E F G H I J K L M N O P Q R S T U V W X Y Z

Amorphis - Silver Bride tab

-------------------------------------------------------------------------------
			     SILVER BRIDE - Amorphis
-------------------------------------------------------------------------------
Tabbed by: Xx_lord_xenu_xX
Email: thetimeofthenine@yahoo.com

Tuning: standard

e|------------------------------|---------5----------------5---------|
B|0-7-0-5-0-------0-7-0-5-0-----|---0-7-0---0-7-5----0-7-0---0-7-5---|
G|----------7-6-------------7-6-|-----------------7b---------------7b|
D|-------------0----------------|-0----------------------------------|
A|------------------------------|------------------------------------|
E|------------------------------|------------------------------------|


after this repeat the first part and then start over
************************************

| /   slide up
| \   slide down
| h   hammer-on
| p   pull-off
| ~   vibrato
| +   harmonic
| x   Mute note
| b   Bend
| pb  Pre-bend
| br  Bend release
| pbr Pre-bend release
| brb Bend release bend

************************************
Tap to rate this tab
 
# A B C D E F G H I J K L M N O P Q R S T U V W X Y Z