Song name
# A B C D E F G H I J K L M N O P Q R S T U V W X Y Z

Amorphis - Silver Bride tab

AMORPHIS - SILVER BRIDE

Tabbed by: Juukai
Contact me: juukai@hotmail.com
Tuning: Standard EADGBe

I was looking for tabs for this (great) song, but I didn't find any proper ones.
So I decided to make one by myself.

This is my first tab so mail me if you find any mistakes or if you got any suggestions 
or something...


Intro/Chorus

  Guitar 1                4x									
e||--------------------------|-----------11--------------|
B||-----13----11----9--------|-----13----------13-11-----|
G||--10----10----10---12----*|--10----10----10-------13--|
D||----------------------13-*|---------------------------|
A||--------------------------|---------------------------|
E||--------------------------|---------------------------|
 |Guitar 2
e||--------------------------|---------------------------|
B||--------------------------|---------------------------|
G||-------------------------*|---------------------------|
D||--3--5--5--5--5--5--5--5-*|--9--9--9--9--9--9--9--9---|
A||--3--5--5--5--5--5--5--5--|--9--9--9--9--9--9--9--9---|
E||--1--3--3--3--3--3--3--3--|--7--7--7--7--7--7--7--7---|

						                          2x
|-----------11--------------|--------------------------|
|-----13----------13-11-----|-----13----11----9--------|
|--10----10----10-------13--|*-10----10----10---12----*|
|---------------------------|*---------------------13-*|
|---------------------------|--------------------------|
|---------------------------|--------------------------|
|
|---------------------------|--------------------------|
|---------------------------|--------------------------|
|---------------------------|*------------------------*|
|--3--3--3--3--3--3--3--3---|*-3--5--5--5--5--5--5--5-*|
|--3--3--3--3--3--3--3--3---|--3--5--5--5--5--5--5--5--|
|--1--1--1--1--1--1--1--1---|--1--3--3--3--3--3--3--3--|


VERSE

 Both Guitars	                                          4x
|---------------------------|----------------------------------|
|---------------------------|----------------------------------|
|*--------------------------|---------------------------------*|
|*--------------------------|---------------------------------*|
|---------------------------|----------------------------------|
|--3-3-3-3--3--3-3--3-3-3---|---3-3--3--3-3--3-1-1-1--1-1-1-1--|
PM . . . .  .  . .  . . .	. .  .  . .  . . . .  . . . .


Guitar 2 continues the riff above and Guitar 1 plays something like this:
                                               4x
|-------------------------|-------------------------|
|--------8----------------|--8-----------------8----|
|*---------7--------------|----7-----------------7-*|
|*-5--5-------------5--5--|--------------5--5------*|
|-------------------------|-------------------------|
|-------------------------|-------------------------|
PM .  .		    .  .		 .  .





CHORUS - Play the intro riff twice

VERSE

BRIDGE
I'm not very sure about this part either + I haven't figured out what the Guitar 2 plays
But the Guitar 1 goes somehow like this:

|-----------------------------------------|------------------------------------|
|--18-17-15~~-15-17-18~--17b18rb17~--15~~-|--17~--18~--17~--18~~---18-17-15~~--|
|-----------------------------------------|------------------------------------|
|-----------------------------------------|------------------------------------|
|-----------------------------------------|------------------------------------|
|-----------------------------------------|------------------------------------|

|--------------------------------------|---------------------------------------|
|--------------------------------------|--18-17-15~~-15-17-18~-15/21-21\15-17~-|
|--------------------------------------|---------------------------------------|
|--18\16\14-14~~-14~-/18---------------|---------------------------------------|
|------------------------19-18-16~~-\--|---------------------------------------|
|--------------------------------------|---------------------------------------|

|----------------15b17-15b17------------|------------------------------------|
|--17--15-17-18~-------------18-17-15~~-|------------------------------------|
|---------------------------------------|------------------------------------|
|---------------------------------------|--18\14-14~~-14/18-18\16------------|
|---------------------------------------|-------------------------19-18-16~~-|
|---------------------------------------|------------------------------------|


CHORUS 
Again play the intro twice then Guitar 1 plays the same from the 8th fret as outro:
                      4x                        2x                       2x
|------------------------|---------9---------------|------------------------||
|----11---9---7----------|----11-------11--9-------|----11---9---7----------||
|*-8----8---8---10------*|*-8----8---8-------11---*|*-8----8---8---10------*||
|*-----------------11---*|*-----------------------*|*-----------------11---*||
|------------------------|-------------------------|------------------------||
|------------------------|-------------------------|------------------------||
Play this twice and you're done.

_KEY_
h - hammer-on
p - pull-off
b - bend
rb- release bend
/ - slide up
\ - slide down
~ - sustained
PM- palm muted
* - repeat
Tap to rate this tab
 
# A B C D E F G H I J K L M N O P Q R S T U V W X Y Z