Song name
# A B C D E F G H I J K L M N O P Q R S T U V W X Y Z

Amorphis - Black River tab

it's the intro to black river by Amorphis
i'm still working on it !



|-----------------------------------------------|
|---------------------6-8-9-8-6---------6-8-----|
|5-7-8-7-5-3----5---------------8-7-7-8-----5---|
|------------5----5-----------------------------|
|-----------------------------------------------|
|-----------------------------------------------|

|-----------------------------------------------|
|-----------------------------------------------|
|5-7-8-7-5-3---5------------------7h8-5---------|
|------------5---3-1---3-6-5--------------------|
|-----------------------------5-----------------|
|-----------------------------------------------|

mail me for questions : dadush642@gmail.com
Tap to rate this tab
# A B C D E F G H I J K L M N O P Q R S T U V W X Y Z