Song name
# A B C D E F G H I J K L M N O P Q R S T U V W X Y Z

Amorphis - Sampo tab

Tuning: DGCFAD
Sampo Intro

Guitar 1
|-----------|
|-2-3-2-----|
|-------2-4-|
|-----------|
|-----------|
|-----------|

Guitar 2
|-----------|
|-----------|
|-2-----4---|
|-2-----4---|
|-0-----2---|
|-----------|

Guitar 1
|-----------------------------------------------|
|-----------------------------------------------|
|-4---0-2-0-4---0-2-0-2h4p2p0-2h4p2p0-----2-4---|
|-------------------------------------4-5-----2-|
|-----------------------------------------------|
|-----------------------------------------------|

Guitar 2
|-----------------------------------------------|
|-----------------------------------------------|
|-----------------------------------------------|
|-9-----9---9-----9----7----------7---7-----7---|
|-7-----7---7-----7----5----------5---5-----5---|
|-7-----7---7-----7----5----------5---5-----5---|

Guitar 1
|-----------------------------------------------|
|-------------------------------------2-3-2-----|
|-4---0-2-0-4---0-2-0-2h4p2p0-2h4p2p0-------2-4-|
|-----------------------------------------------|
|-----------------------------------------------|
|-----------------------------------------------|

Guitar 2
|-----------------------------------------------|
|-----------------------------------------------|
|-----------------------------------------------|
|-9-----9---9-----9----7----------7---7---------|
|-7-----7---7-----7----5----------5---5-----9---|
|-7-----7---7-----7----5----------5---5-----7---|
Tap to rate this tab
# A B C D E F G H I J K L M N O P Q R S T U V W X Y Z