Song name
# A B C D E F G H I J K L M N O P Q R S T U V W X Y Z

Amorphis - Drowned Maid tab

This tab was 

Amorphis - Drowned Maid
-----------------------

Transcribed by Thomas Barnwell - tbarnwell@aol.com
http://users.aol.com/carcolepsy/amorphis/index.html - Amorphis Homepage


Part 1          
D|---------------------------------------------------------------------------|
A|---------------------------------------------------------------------------|
F|---------------------------------------------------------------------------|
C|--------------------------------------------4-----4------------------------|
G|--------------------------------------------4-----4------------------------|
D|-777777777777-555555555555-333333333333-222-2-222-2------------------------|
 | DUDUDUDUDUDU DUDUDUDUDUDU DUDUDUDUDUDU                                    |
 |                                                                           |
D|---------------------------------------------------------------------------|
A|---------------------------------------------------------------------------|
F|---11--------------11-----------9------------11----------------------------|
C|/9-----/9----/14------/9---/12------/9--/11------/7------------------------|
G|---------------------------------------------------------------------------|
D|---------------------------------------------------------------------------|

Part 2
D|---------------------------------------------------------------------------|
A|---------------------------------------------------------------------------|
F|---------------------------------------------------------------------------|
C|-12-----------8------------7------------10---------------------------------|
G|-12-----------8------------7------------10---------------------------------|
D|-10-----------6------------5------------8----------------------------------|
 |                                                                           |
 |                                                                           |
D|---------------------------------------------------------------------------|
A|---10---------------10-----------10---------10-----------------------------|
F|/7-----/7---/12--------/7--/10-------/7--/9-----/5-------------------------|
C|---------------------------------------------------------------------------|
G|---------------------------------------------------------------------------|
D|---------------------------------------------------------------------------|


Part 3
D|---------------------------------------------------------------------------|
A|---------------------------------------------------------------------------|
F|---------------------------------------------------------------------------|
C|-9---------5----------5----------7-----------------------------------------|
G|-7---------3----------5----------7-----------------------------------------|
D|----------------------3----------5-----------------------------------------|
 |                                                                           |
 |                                                                           |
D|---------------------------------------------------------------------------|
A|---------------------------------------------------------------------------|
F|---------------------------------------------------------------------------|
C|----4-5------5-4h5---------------------------------------------------------|
G|/7-----------------7-------------------------------------------------------|
D|-----------8----------7-8-7h8p7--5-5-3-2-----------------------------------|


Part 4
D|---------------------------------------------|-----------------------------|
A|---------------------------------------------|-----------------------------|
F|---------------------------------------------|-----------------------------|
C|-3---------3----------6---------------5------|-2---------------------------|
G|-1---------3----------4---------------3------|-2---------------------------|
D|-----------2---------------------------------|-0---------------------------|
 |                                                                           |
 |                                                                           |
D|----8-9------9-8h9---------------------------|-----------------------------|
A|/11----------------11------------------------|-----------------------------|
F|-----------11---------10-11-10h11p10--8-8-6-5|-----------------------------|
C|---------------------------------------------|-----------------------------|
G|---------------------------------------------|-----------------------------|
D|---------------------------------------------|/11--------------------------|
                                                Let note ring...

Part 5
Tap to rate this tab
 
# A B C D E F G H I J K L M N O P Q R S T U V W X Y Z