Song name
# A B C D E F G H I J K L M N O P Q R S T U V W X Y Z

Amorphis - Magic & Mayhem tab

#

Date: Thu, 15 Feb 1996 11:14:27 +0200 (GMT+0200)
From: Antti-Pekka Karppinen 
Subject: TAB:

			AMORPHIS 
		
		     Magic and Mayhem                       	     
                   (Album: Tales from the 1000 lakes)
    
  The intro is old finnish folk song so no copyrights for intro.
  All music by Amorphis (exept Intro)
  (the whole song is probably tabbed wrong, im not perfect)
  Typed in by: ANA OF CORROSION

 INTRO
|--------------------------------------------------------------------- 
|--------------------------------------------------------------------- 
|-----------------------------------7h9------------------------------- 
|---------------------------9-9-7-9-----7-7--------------------------- 
|--7-7--9-10-10-9h10-9-7-7-------------------------------------------- 
|---------------------------------------------------------------------     :--------------------------------------:
            repeat 2x
 
|--------------------------------------------------------------------- 
:--------------------------------------------------------------------- 
|--8--7-7-7-5-----------------------5--------------------------------- 
|-------------8-8-8-7-5-5-7-8-8-7-7---8-7-5---5-(5)------------------- 
|-------------------------------------------8------------------------- 
|---------------------------------------------------------------------     :----------------------------------------------:
           repeat 2x
(END OF INTRO) 

|------------------------------(---------)---------------------------- 
|------------------------------(---------)---------------------------- 
|------------------------------(---a.h.--)---------------------------- 
|-------------------4--3-3-3-3-(----9----)---------------------------- 
|--2--2-2-5--2---4--2--1-1-1-1-(---------)---------------------------- 
|--0--0-0-3--4-0-2-------------(00-------)----------------------------        :-:  sl            :p.m: (pm       )
      pm                       ( additi- )
   :-------------------------: ( onal    )
     repeat several times
       (listen CD)
 
|--------------------------------------------------------------------- 
|--------------------------------------------------------------------- 
|--------------------------------------------------------------------- 
|--------------------------------------------------------------------- 
|-5--2-2---------5--2-2----5------------------------------------------ 
|-3--0-0-000000--3--0-0-00-3------------------------------------------       :---pm---:     :-pm-:
 
  :------------------------:
    repeat several times
    (the synth comes in)
 
|--------------------------------------------------------------------- 
|--------------------------------------------------------------------- 
|--------------------------------------------------------------------- 
|----------------1---------------------------------------------------- 
|--2--2-2-2--2-3---3-2--2-2-2-3-2------------------------------------- 
|---------------------------------------------------------------------     :----------------------------:
     repeat MANY TIMES

 
|--------------------------------------------------------------------- 
|--------------------------------------------------------------------- 
|--------------------------------------------------------------------- 
|--------------------------------7--4-4---------7--4-4----7----------- 
|-5--2-2---------5--2-2----5-----5--2-2-222222--5--2-2-22-5----------- 
|-3--0-0-000000--3--0-0-00-3------------------------------------------       :--pm----:     :-pm-:          :---pm---:     :-pm-:
  :------------------------:     :------------------------:
       repeat                            repeat
 
EXPLANATION:
 
:-pm--: = palm mute
 
  sl    = slide
 
  h     = hammer on
 
  a.h   = artificial harmonic
 
  (9)   = ghost note
 
****************************************** 
*             WANTED !!!!                *  
*                                        * 
* Tabs from Amorphis and Paradise Lost ! *              
*                                        *   
* Send e-mail: kopis3.pspt.fi@apkarppi   *
* ****************************************
Tap to rate this tab
# A B C D E F G H I J K L M N O P Q R S T U V W X Y Z