Song name
# A B C D E F G H I J K L M N O P Q R S T U V W X Y Z

Amorphis - Stone Woman tab

-------------------------------------------------------------------------------
			     Stone Woman -by- Amorphis
-------------------------------------------------------------------------------
Tabbed by: Jeff Cameron
11/11/2007 
Email: jcameron99@gmail.com

Hey, this is my first tab, but I think it’s pretty decent. Enjoy.

Tuning:  C G C F A D

Intro, X4:

Distortion
d|-----------------------------------|---------------------------------------|
A|-----------------------------------|---------------------------------------|
F|-----------------------------------|---------------------------------------|
C|----7---7---10---/14---12---10-----|--------9--12------7--10---------------|
G|----7---7---10---/14---12---10-----|----10----------8----------------------|
C|----7---7---10---/14---12---10-----|---------------------------------------|

Verse 1a, X4:

Clean, strum
D|-----------------------------------|---------------------------------------|
A|-----------------------------------|----8--8--8--6--6--6--6--6-------------|
F|---7—-7—-7—-7--7--7—-7--7----------|----7--7--7--5--5--5--5--5-------------|
C|---7—-7—-7—-7--7--7—-7--7----------|----5--5--5--3--3--3--3--3-------------|
G|---5—-5—-5—-5--5--5—-5--5----------|----5--5--5--3--3--3--3--3-------------|
C|-----------------------------------|----5--5--5--3--3--3--3--3-------------|

Verse 1b, X4:

Guitar 1, distortion
     •  •  •  •  •  •  •  •               •  •  •  •  •  •  •  •
D|-----------------------------------|---------------------------------------|
A|-----------------------------------|---------------------------------------|
F|-----------------------------------|---------------------------------------|
C|---0--0--0--0--0--0--0--0----------|----5--5--5--3--3--3--3--3-------------|
G|---0--0--0--0--0--0--0--0----------|----5--5--5--3--3--3--3--3-------------|
C|---0--0--0--0--0--0--0--0----------|----5--5--5--3--3--3--3--3-------------|

Guitar 2, distortion
d|-----------------------------------|---------------------------------------|
A|-------15--------------------------|---------------------------------------|
F|-------------14~~~~~~~~~~~~~~~~~~~~|~~~~~~~~~~~~~~~~~~~~~~~~~~~~~~~~~~~~~~~|
C|---0~~~~~~~~~~~~~~~~~~~~~~~~~~~~~~~|~~~~~~~~~~~~~~~~~~~~~~~~~~~~~~~~~~~~~~~|
G|-----------------------------------|---------------------------------------|
C|-----------------------------------|---------------------------------------|

Chorus 1a:

Guitar 1, distortion
              •                                                              X4
d|-----------------------------------|---------------------------------------|
A|-----------------------------------|---------------------------------------|
F|-----------------2-----------------|------0-------------3------------------|
C|----0---0---3----2-----------------|------2-------------3------------------|
G|----0---0---3----0-----------------|------3-------------1------------------|
C|----0---0---3----------------------|---------------------------------------|

Guitar 2, distortion
d|-----------------------------------|---------------------------------------|
A|---------------10~~~~~~~~~~~~~~~~~~|~~~~~~~~~~~~~~~~~~~~~~~~~~~~~~~~~~~~~~~|
F|-----7--7--10----------------------|---------------------------------------|
C|-----------------------------------|---------------------------------------|
G|-----------------------------------|---------------------------------------|
C|-----------------------------------|---------------------------------------|

d|-----------------------------------|---------------------------------------|
A|---------------10-—8~~~~~~~~~~~~~~~|~~~~~~~~~~~~~~~~~~~~~~~~~~~~~~~~~~~~~~~|
F|-----7--7--10----------------------|---------------------------------------|
C|-----------------------------------|---------------------------------------|
G|-----------------------------------|---------------------------------------|
C|-----------------------------------|---------------------------------------|

d|-----------------------------------|---------------------------------------|
A|---------------10~~~~~~~~~~~~~~~~~~|~~~~~~~~~~~~~~~~~~~~~~~~~~~~~~~~~~~~~~~|
F|-----7--7--10----------------------|---------------------------------------|
C|-----------------------------------|---------------------------------------|
G|-----------------------------------|---------------------------------------|
C|-----------------------------------|---------------------------------------|

d|-----------------------------------|---------------------------------------|
A|---------------10—-8~~~~~~---------|---/8----------------------------------|
F|-----7--7--10----------------------|--------10---9---7~~~~~~~~~~~~~--------|
C|-----------------------------------|---------------------------------------|
G|-----------------------------------|---------------------------------------|
C|-----------------------------------|---------------------------------------|

Chorus 1b, X4:

distortion
d|-----------------------------------|---------------------------------------|
A|-----------------------------------|---------------------------------------|
F|-----------------------------------|---------------------------------------|
C|----------3----/7----5----3--------|--------2----5----------------3--------|
G|---5--5----------------------------|----3--------------1----/5-------------|
C|-----------------------------------|---------------------------------------|

Verse 2a, X4:

Clean, strum
D|-----------------------------------|---------------------------------------|
A|-----------------------------------|----8--8--8--6--6--6--6--6-------------|
F|---7—-7—-7—-7--7--7—-7--7----------|----7--7--7--5--5--5--5--5-------------|
C|---7—-7—-7—-7--7--7—-7--7----------|----5--5--5--3--3--3--3--3-------------|
G|---5—-5—-5—-5--5--5—-5--5----------|----5--5--5--3--3--3--3--3-------------|
C|-----------------------------------|----5--5--5--3--3--3--3--3-------------|

Verse 2b:

Guitar 1, distortion
     •  •  •  •  •  •  •  •               •  •  •  •  •  •  •  •             X4
D|-----------------------------------|---------------------------------------|
A|-----------------------------------|---------------------------------------|
F|-----------------------------------|---------------------------------------|
C|---0--0--0--0--0--0--0--0----------|----5--5--5--3--3--3--3--3-------------|
G|---0--0--0--0--0--0--0--0----------|----5--5--5--3--3--3--3--3-------------|
C|---0--0--0--0--0--0--0--0----------|----5--5--5--3--3--3--3--3-------------|

Guitar 2, distortion
d|-----------------------------------|---------------------------------------|
A|----18--17--15---------------------|---------------------------------------|
F|-------------------14--------------|--------------16-----------------------|
C|-----------------------------15----|------/17------------------------------|
G|-----------------------------------|---------------------------------------|
C|-----------------------------------|---------------------------------------|

d|-----------------------------------|---------------------------------------|
A|-------15--------------------------|---------------------------------------|
F|-------------14~~~~~~~~~~~~~~~-----|---------------------------------------|
C|---0~~~~~~~~~~~~~~~~~~~~~~~~~~-----|--------------17----15-----------------|
G|-----------------------------------|------/17------------------------------|
C|-----------------------------------|---------------------------------------|

d|-----------------------------------|---------------------------------------|
A|----18--17--15---------------------|---------------------------------------|
F|-------------------14--------------|--------------16-----------------------|
C|-----------------------------15----|------/17-----------15-----------------|
G|-----------------------------------|---------------------------------------|
C|-----------------------------------|---------------------------------------|

d|-----------------------------------|---------------------------------------|
A|-----13--12--10--------------------|---------------------------------------|
F|----------------------10-----14----|-----12~~~~~~~~~~~~~~~~~~~~------------|
C|-----------------------------------|---------------------------------------|
G|-----------------------------------|---------------------------------------|
C|-----------------------------------|---------------------------------------|

Chorus 2:

Guitar 1, distortion
              •                                                              X4
d|-----------------------------------|---------------------------------------|
A|-----------------------------------|---------------------------------------|
F|-----------------2-----------------|------0-------------3------------------|
C|----0---0---3----2-----------------|------2-------------3------------------|
G|----0---0---3----0-----------------|------3-------------1------------------|
C|----0---0---3----------------------|---------------------------------------|

Guitar 2, distortion
d|-----------------------------------|---------------------------------------|
A|---------------10~~~~~~~~~~~~~~~~~~|~~~~~~~~~~~~~~~~~~~~~~~~~~~~~~~~~~~~~~~|
F|-----7--7--10----------------------|---------------------------------------|
C|-----------------------------------|---------------------------------------|
G|-----------------------------------|---------------------------------------|
C|-----------------------------------|---------------------------------------|

d|-----------------------------------|---------------------------------------|
A|---------------10-—8~~~~~~~~~~~~~~~|~~~~~~~~~~~~~~~~~~~~~~~~~~~~~~~~~~~~~~~|
F|-----7--7--10----------------------|---------------------------------------|
C|-----------------------------------|---------------------------------------|
G|-----------------------------------|---------------------------------------|
C|-----------------------------------|---------------------------------------|

d|-----------------------------------|---------------------------------------|
A|---------------10~~~~~~~~~~~~~~~~~~|~~~~~~~~~~~~~~~~~~~~~~~~~~~~~~~~~~~~~~~|
F|-----7--7--10----------------------|---------------------------------------|
C|-----------------------------------|---------------------------------------|
G|-----------------------------------|---------------------------------------|
C|-----------------------------------|---------------------------------------|

d|-----------------------------------|---------------------------------------|
A|---------------10—-8~~~~~~---------|---/8----------------------------------|
F|-----7--7--10----------------------|--------10---9---7~~~~~~~~~~~~~--------|
C|-----------------------------------|---------------------------------------|
G|-----------------------------------|---------------------------------------|
C|-----------------------------------|---------------------------------------|

Bridge / Solo Section:

                                                     < > bend 1/2
d|-----------------------------------|---------------------------------------|
A|-----------------------------------|---------------------------------------|
F|-----------------------------------|---------------------------------------|
C|----2------------------------------|-------5---7----7-----5-----0----------|
G|----------------------0-----2------|--/7-----------------------------------|
C|--------2---2----------------------|---------------------------------------|

First ending, X3:
                                                     < > bend 1/2
d|-----------------------------------|---------------------------------------|
A|-----------------------------------|---------------------------------------|
F|-----------------------------------|---------------------------------------|
C|----2------------------------------|-------5---7----5-----------0----------|
G|----------------------0-----2------|--/7-----------------------------------|
C|--------2---2----------------------|---------------------------------------|

Second ending, X1:
                                        < > bend 1/2
d|-----------------------------------|---------------------------------------|
A|-----------------------------------|---------------------------------------|
F|-----------------------------------|---------------------------------------|
C|--------5---7---/9---7---5---------|---7---5---7----5----------------------|
G|----7------------------------------|------------------7--5-----------------|
C|-----------------------------------|--------------------------7----5-------|

Chorus 3a:

Guitar 1, distortion
              •                                                              X4
d|-----------------------------------|---------------------------------------|
A|-----------------------------------|---------------------------------------|
F|-----------------2-----------------|------0-------------3------------------|
C|----0---0---3----2-----------------|------2-------------3------------------|
G|----0---0---3----0-----------------|------3-------------1------------------|
C|----0---0---3----------------------|---------------------------------------|

Guitar 2, distortion
d|-----------------------------------|---------------------------------------|
A|---------------10~~~~~~~~~~~~~~~~~~|~~~~~~~~~~~~~~~~~~~~~~~~~~~~~~~~~~~~~~~|
F|-----7--7--10----------------------|---------------------------------------|
C|-----------------------------------|---------------------------------------|
G|-----------------------------------|---------------------------------------|
C|-----------------------------------|---------------------------------------|

d|-----------------------------------|---------------------------------------|
A|---------------10-—8~~~~~~~~~~~~~~~|~~~~~~~~~~~~~~~~~~~~~~~~~~~~~~~~~~~~~~~|
F|-----7--7--10----------------------|---------------------------------------|
C|-----------------------------------|---------------------------------------|
G|-----------------------------------|---------------------------------------|
C|-----------------------------------|---------------------------------------|

d|-----------------------------------|---------------------------------------|
A|---------------10~~~~~~~~~~~~~~~~~~|~~~~~~~~~~~~~~~~~~~~~~~~~~~~~~~~~~~~~~~|
F|-----7--7--10----------------------|---------------------------------------|
C|-----------------------------------|---------------------------------------|
G|-----------------------------------|---------------------------------------|
C|-----------------------------------|---------------------------------------|

d|-----------------------------------|---------------------------------------|
A|---------------10—-8~~~~~~---------|---/8----------------------------------|
F|-----7--7--10----------------------|--------10---9---7~~~~~~~~~~~~~--------|
C|-----------------------------------|---------------------------------------|
G|-----------------------------------|---------------------------------------|
C|-----------------------------------|---------------------------------------|

Chorus 3b, X4:

distortion
d|-----------------------------------|---------------------------------------|
A|-----------------------------------|---------------------------------------|
F|-----------------------------------|---------------------------------------|
C|----------3----/7----5----3--------|--------2----5----------------3--------|
G|---5--5----------------------------|----3--------------1----/5-------------|
C|-----------------------------------|---------------------------------------|

Outro:

                            |~~~~~~~~~~~let ring~~~~~~~~~~~~~~~~~~~~~~~~~~~~~|
d|-----------------------------------|---------------------------------------|
A|-----------------------------------|---------------------------------------|
F|-----------------------------------|---------------------------------------|
C|----------------2---------0--------|---------------------------------------|
G|----0----3----------------0--------|---------------------------------------|
C|--------------------------0--------|---------------------------------------|

| •  palm mute
| /  slide up
| \  slide down
| h  hammer-on
| p  pull-off
| ~  vibrato and/or let ring
| +  harmonic
| x  Mute note
===============================================================================
Tap to rate this tab
 
# A B C D E F G H I J K L M N O P Q R S T U V W X Y Z