Song name
# A B C D E F G H I J K L M N O P Q R S T U V W X Y Z

Amos Lee - Give It Up tab

-------------------------------------------------------------------------------
Give It Up - Poison Idea
Darby Crash Rides Again
-------------------------------------------------------------------------------
Tabbed by: axeslash
Email: holmzito@yahoo.com

Tuning: Standard

e|---------------------------------------------------------------------------|
B|---------------------------------------------------------------------------|
G|---------------------------------------------------------------------------|
D|---------------------------------------------------------------------------|
A|---------------------------------------------------------------------------|
E|-7~~~~~~~~~~~~~~~~~~~~~~~~~~~~~~~~~~~~~~~~~~~~~~~~~~~~~~~~~~~~~~~~~~~~~~~~-|

e|-----------------------|
B|-----------------------|
G|-------------7--7-7----|
D|-9--9--9--9--7--7-7----|
A|-9--9--9--9--5--5-5----|
E|-7--7--7--7------------| x6

e|-----------------------------------------------|
B|-----------------------------------------------|
G|-------------------------------------5--5-5----|
D|-7--7--7--7--3--3--3--3--7--7--7--7--5--5-5----|
A|-7--7--7--7--3--3--3--3--7--7--7--7--3--3-3----|
E|-5--5--5--5--1--1--1--1--5--5--5--5------------| x2

e|-----------------------|
B|-----------------------|
G|-------------7--7-7----|
D|-9--9--9--9--7--7-7----|
A|-9--9--9--9--5--5-5----|
E|-7--7--7--7------------| x6

e|-----------------------------------------------|
B|-----------------------------------------------|
G|-------------------------------------5--5-5----|
D|-7--7--7--7--3--3--3--3--7--7--7--7--5--5-5----|
A|-7--7--7--7--3--3--3--3--7--7--7--7--3--3-3----|
E|-5--5--5--5--1--1--1--1--5--5--5--5------------| x2

e|-----------------------|
B|-----------------------|
G|-------------7--7-7----|
D|-9--9--9--9--7--7-7----|
A|-9--9--9--9--5--5-5----|
E|-7--7--7--7------------| x6


| /  slide up
| \  slide down
| h  hammer-on
| p  pull-off
| ~  vibrato
| +  harmonic
| x  Mute note
===============================================================================
Tap to rate this tab
# A B C D E F G H I J K L M N O P Q R S T U V W X Y Z