Song name
# A B C D E F G H I J K L M N O P Q R S T U V W X Y Z

Amos Lee - Night Train tab

                      RIFF
E--------     --------------------|
A--------     --------------8-6-5-|
D--2-2---     ---------8-5--------|
G--------     -5---7-5------------|
B--5-5---     ---5----------------|
e--------     --------------------|


E------|
A------|
D--1-1-|   REPEAT RIFF
G------|
B--4-4-|
e------|

Do ALL THAT TWICE THEN...

E----------------------------    ----------|
A----------------------------    ---3-3--3-|
D--5-------------8-5--------- x2 ----------|
G----5-5-8-8-5-5------5-5-5--    ---5-5--5-|
B----------------------------    ----------|
e----------------------------    ----------|
Tap to rate this tab
# A B C D E F G H I J K L M N O P Q R S T U V W X Y Z